Sound will begin in 5 seconds

Floating

01234567891011121314151617181920212223
E
B
G
D
A
E
B
0 1 2 3 4 5 6 7 8 9 10 11 12 13 14 15 16 17 18 19 20 21 22 23
Song Science #1: How Pros Use 6 Chords to Write Hit Songs
(/) Slide Up  (\) Slide Down  (h) Hammer On  (p) Pull Off  (b) Bend (r) Release (v) Vibrato

Stave 1:

G|--------------------------------------------------------------------------------------------------
D|--12--12--12--12--12--12--12--12--12--12--12--12--12--12--12--12--12--12--12--12--12--12--12--12--
A|--------------------------------------------------------------------------------------------------
E|--------------------------------------------------------------------------------------------------

Stave 2:

G|-----16--------14--------11-----------------------------------------
D|--0---------0---------0---------0--0--0--14--16--17-----16--14--12--
A|--------------------------------------------------------------------
E|--------------------------------------------------------------------

Stave 3:

G|-----------------------------
D|--0--0--0--------------------
A|-----------2--2--2--0--0--0--
E|-----------------------------

Stave 4:

G|--------------------------------------------------------------------------------------
D|--12--12--12--12--14--14--14-----16--14--12-------------------------------------------
A|---------------------------------------------------14--14--14--14-----12--12--12--12--
E|--------------------------------------------------------------------------------------

Stave 5:

G|-----------------------------------------
D|--5--5--5--5--9--9--9--9--7--7--7--7--7--
A|-----------------------------------------
E|-----------------------------------------

Stave 6:

G|-----------------------------------------------------------------------------------------------
D|-----------------------------------------------------------------------------------------------
A|--5--5--5--7--7--7--7--5--2--2--2--0--0--0-----0--2--5--5--5--5--5--7--7--7--7--5--2--2--0--0--
E|-----------------------------------------------------------------------------------------------

Stave 7:

G|-----------------------------------------------
D|-----------------------------------------------
A|--5--5--5--5--7--7--7--7--9--7--5--2--2--0--0--
E|-----------------------------------------------

http://www.guitartabcreator.com
Guitar Tab Creator is intended to store guitar tab created through the tool. It currently does not support in-line text editing. Any text you place in here will be lost. If you need to comment on your tab, please use the "Tab Notes" section located below.