Sound will begin in 5 seconds

Gunger Doxology

01234567891011121314151617181920212223
E
B
G
D
A
E
B
0 1 2 3 4 5 6 7 8 9 10 11 12 13 14 15 16 17 18 19 20 21 22 23
Song Science #1: How Pros Use 6 Chords to Write Hit Songs
(/) Slide Up  (\) Slide Down  (h) Hammer On  (p) Pull Off  (b) Bend (r) Release (v) Vibrato

Stave 1:

E|-----------------|-------------------
B|-----------------|-------------------
G|-----------------|-------------------
D|-----4-2-4---4---|-----4-2-4---4-----
A|---0-------0---0-|---0-------0---0---
E|-0---------------|-0-----------------

Stave 2:

E|-----------------|-----------------
B|-----------------|-----------------
G|-----------------|-----------------
D|-----5-4-5---5---|-----5-4-5---5---
A|---2-------2---2-|---2-------2---2-
E|-0---------------|-0---------------

Stave 3:

E|-----------------|-----------------
B|-----------------|-----------------
G|-----------------|-----------------
D|-----5-4-5---5---|-----5-4-5---5---
A|---4-------4---4-|---4-------4---4-
E|-0---------------|-0---------------

Stave 4:

E|---------------------------------
B|---------------------------------
G|-----7---7---6---4---2---7---9---
D|---------------------------------
A|---5---5---5---4---2---0---5---7-
E|-0-------------------------------

Stave 5:

E|-----------------|----------------------------------------------------
B|-----------------|----------------------------------------------------
G|-----------------|-----11-----11-----9-----7-----12------11-----9-----
D|-----4-2-4---4---|--------0------0-----0-----0------0-------0-----0---
A|---0-------0---0-|---0------9------9-----7-----5------10------9-----7-
E|-0---------------|-0--------------------------------------------------

Stave 6:

E|-------------------------------------------------------------------
B|-------3---5---7---5---3---0---2-------3-2-3---3-------3-2-3---3---
G|-----2-----4---6---4---2---0---2-----------------------------------
D|---0-----0---0---0---0---0---0---2---4-------4---4---4-------4---4-
A|-------------------------------------------------------------------
E|-0-------------------------5---0---2---------------2---------------

Stave 7:

E|----------------------------0---0---0-|-----------5---2-----2---2-3---2-------
B|---------10---7---3---5-7-8---7---5---|---------3-----3---3---5---5-5---3-5---
G|-------9------6---2---4-6-7-----------|-------2-----2---2---------3---2-------
D|-----9------9---0---0-----8---7---5---|-----0---------0---4---5-----------5---
A|---0----------------------------------|---0---------------------------------0-
E|-0------------------------------------|-0-------------------------------------

Stave 8:

E|-------------------------------
B|-3-----3---------3-----------3-
G|-----0---------0-----------2---
D|---3-------0h2---------2h4-----
A|-1-------3-----------0---------
E|-------------------0-----------

Stave 9:

E|-------------------------------------------------------
B|-------------------------------------------------------
G|-------------------------------------------------------
D|-------3-5-------------5-------3-5---------------0h2-0-
A|---5-3-3-5-3h5-5-3-3h5-5---5-3-3-5-------0h3-2h3-------
E|-0-----3-5-------------5-0-----3-5-0h3h5---------------

Stave 10:

E|-------------------------------------------------------------------
B|-------------------------------------------------------------------
G|-------------------------------------------------------------------
D|-------------3-5-------------5-3-------------3-5-------3-0-------0-
A|-0-0h2-4-2h4-3-5-2h5-5-3-3h5-5-3-3h4h5-3h4h5-3-5-----0-----3-0-3---
E|-------------3-5-------------5-3-------------3-5-0h3---------------

Stave 11:

E|-------------|-----------------------|----------------------
B|-------------|-----------------------|----------------------
G|-7-6-4-2-7-9-|-----------------------|-5/11-9-7-12-11-7-9---
D|-------------|-----3-------------5-3-|----------------------
A|-5-4-2-0-5-7-|-5-3-3-3h5-5-3-3h5-5-3-|-3-9--7-5-10-9--5-7---
E|-------------|-----3-------------5-3-|----------------------

Stave 12:

E|-----------------------------------
B|-----------------------------------
G|--------------------------10-------
D|-----3-5---------------------12-12-
A|-5-3-3-5-3h5-5-3-3h5-3/12----------
E|-----3-5---------------------------

Stave 13:

E|-0-0-0-0-0-0-0-0-
B|-3-5-7-5-3-0-3-2-
G|-2-4-6-4-2-0-0-2-
D|-0-0-0-0-0-0-0-2-
A|-0-0-0-0-0-0-0-0-
E|-0-0-0-0-0-5-5---

Stave 14:

E|-------------------------------------------------------
B|-------------------------------------------------------
G|-------------3-5---------------10-------12-------10----
D|-------------3-5------------12----------------------12-
A|-3h5-5-3-3h5-3-5-3h5-5-5/12-------12/14----10h12-------
E|-------------------------------------------------------

Stave 15:

E|-0-5-2-------------
B|-3-3-3-3-5-7-8-7-5-
G|-2-2-2-2-0-0-0-0-0-
D|-0-0-0-4-5-7-8-7-5-
A|-0-0-0-0-0-0-0-0-0-
E|-0-0-0-0-0-0-0-0-0-

Stave 16:

E|-------------------------------|---------------------------
B|-------------------------------|---------------------------
G|---------------------6-7p6-----|---------------------6-7---
D|-------7-6-----6-7-9-------9-7-|-------7-6-----6-7-9-------
A|---5-9-----7-9-----------------|---5-9-----7-9-------------
E|-7-----------------------------|-7-----------------------0-

Stave 17:

E|-------------------------------------------------------------------------------
B|-5-3-3-3-3-3-3-3-3-3---------6-5-6-8-5-----6-5-6-10-8-----6-5-6-10-12-13-15-17-
G|-0-0-0-0-0-0-0-0-0-0---------5-0-5-7-0-----5-0-5-0--7-----5-0-5-0--0--0--0--0--
D|-5-0-0-0-0-0-0-0-0-0-3-5-----0-0-0-0-0-----0-0-0-0--0-----0-0-0-0--0--0--0--0--
A|-3-2-1-3-1-3-1-3-1-3-3-5-----5-3-5-7-3-----5-3-5-8--7-----5-3-5-8--10-12-14-15-
E|---------------------3-5-0-0-----------0-0------------0-0----------------------

Stave 18:

E|---------------------------
B|-17-15-13-12-12-10-8-6-5---
G|-0--0--0--0--0--0--0-0-0---
D|-0--0--0--0--0--0--0-0-0---
A|-15-14-12-10-10-8--7-5-3---
E|-------------------------0-

Stave 19:

E|--------------------------------------------------------------------------------------
B|-10-7---------------------------------------------------------------------------------
G|-7--7-7-9-11-12-11-9-9-11-12-11-9-9--11-12-11-9--9-11-12-11-9-9-11-12-11-9-11-12-11-9-
D|-7--7-7-7----8--8--8-9-9--9--9--9-10-10-10-10-10-9-9--9--9--9-8-8--8--8--8-8--8--8--8-
A|-0--0-0-0----0--0--0-0-0--0--0--0-0--0--0--0--0--0-0--0--0--0-0-0--0--0--0-0--0--0--0-
E|-0--0-0-0----0--0--0-0-0-----0--0-0--0--0--0--0--0-0--0--0--0-0-0--0--0--0-0--0--0--0-

Stave 20:

E|---------8-5-----------------------------------------------------
B|---------8-6-6-8-10-11-10----------------------------------------
G|-7-5-3-0-7-5-5-7-9--10-9---------------------------------0---0---
D|-8-7-5-3-0-0-0-0-0--0--0--12-10-9-7-5-3-0-10-9-7-5-3-0-----------
A|---------0-0-0-0-0--0--0--0--0--0-0-0-0-0-0--0-0-0-0-0-5---5---5-
E|---------0-0-0-0-0--0--0--0--0--0-0-0-0-0-0--0-0-0-0-0-----------

Stave 21:

E|-------------------------------------
B|-------------------------------------
G|-7-3-7-3-9-6-9-6-11-7-11-7-12-9-12-9-
D|-0-0-0-0-0-0-0-0-0--0-0--0-0--0-0--0-
A|-5-2-5-2-7-4-7-4-9--5-9--5-10-7-10-7-
E|-0-0-0-0-0-0-0-0-0--0-0--0-0--0-0--0-

Stave 22:

E|------------------------
B|----------------------3-
G|-14-11-7-9-11-12-11-9-2-
D|-0--0--0-0-0--0--0--0-0-
A|-12-9--5-7-9--10-9--7-0-
E|-0--0--0-0-0--0--0--0-0-

Stave 23:

E|-
B|-
G|-
D|-
A|-
E|-

Stave 24:

E|-------------------------------------------------
B|-------------------------------------------------
G|-------------------------------------------------
D|-------------------------------------------------
A|-----2p0-3---------2p0-3---------2p0-3---5p0-----
E|-0h3-------5p3-0h3-------5p3-0h3-------5-----0---

Stave 25:

E|----------------------------------
B|---10---7-------------------------
G|---7----7---7---9-11-12---11----9-
D|---7----7---7---7----8-------11---
A|---0----0---0---0----0------------
E|-0-0--0-0-0-0-0-0----0--0---------

http://www.guitartabcreator.com
Guitar Tab Creator is intended to store guitar tab created through the tool. It currently does not support in-line text editing. Any text you place in here will be lost. If you need to comment on your tab, please use the "Tab Notes" section located below.