AGHHHHHHHHHHHHHHHHHHHHHHHHHHHHHHHHH

Chords

01234567891011121314151617181920212223
E
B
G
D
A
E
B
0 1 2 3 4 5 6 7 8 9 10 11 12 13 14 15 16 17 18 19 20 21 22 23
(/) Slide Up  (\) Slide Down  (h) Hammer On  (p) Pull Off  (b) Bend (r) Release (v) Vibrato

Stave 1:

G|--------------0--2--3-----------------------------------------------------------------------1--3--------4--2--------0--1--3-----3--0--------------2--0-----
D|--------0--4-----------3--1--0-----------------------------------------------------1--2--3--------3-----------4--3-----------1--------1--2-----0--------3--
A|--2--4--------------------------3--1--0--------0--------0--1--3-----------0--2--4--------------------2--------------------------------------0--------------
E|-----------------------------------------3--2-----3--3-----------3--3--2-----------------------------------------------------------------------------------

Stave 2:

G|-----3--4--2--0--3--4-----4--3--0--1--3--
D|--1--------------------4-----------------
A|-----------------------------------------
E|-----------------------------------------

							http://www.guitartabcreator.com
Instruments
{"strings":[[[".",".",".",".",0,2,3,".",".",".",".",".",".",".",".",".",".",".",".",".",".",".",".",".",".",".",".",".",".",".",1,3,".",".",4,2,".",".",0,1,3,".",3,0,".",".",".",".",2,0,"."],[".",".",0,4,".",".",".",3,1,0,".",".",".",".",".",".",".",".",".",".",".",".",".",".",".",".",".",1,2,3,".",".",3,".",".",".",4,3,".",".",".",1,".",".",1,2,".",0,".",".",3],[2,4,".",".",".",".",".",".",".",".",3,1,0,".",".",0,".",".",0,1,3,".",".",".",0,2,4,".",".",".",".",".",".",2,".",".",".",".",".",".",".",".",".",".",".",".",0,".",".",".","."],[".",".",".",".",".",".",".",".",".",".",".",".",".",3,2,".",3,3,".",".",".",3,3,2,".",".",".",".",".",".",".",".",".",".",".",".",".",".",".",".",".",".",".",".",".",".",".",".",".",".","."]],[[".",3,4,2,0,3,4,".",4,3,0,1,3],[1,".",".",".",".",".",".",4,".",".",".",".","."],[".",".",".",".",".",".",".",".",".",".",".",".","."],[".",".",".",".",".",".",".",".",".",".",".",".","."]]],"numberofstrings":4,"notes":["G","D","A","E"],"capo":0,"stringnotes":["G2","D2","A1","E1"],"comments":["Stave 1:","Stave 2:"],"timing":[["W","W","W","W","W","W","W","W","W","W","W","W","W","W","W","W","W","W","W","W","W","W","W","W","W","W","W","W","W","W","W","W","W","W","W","W","W","W","W","W","W","W","W","W","W","W","W","W","W","W","W"],["W","W","W","W","W","W","W","W","W","W","W","W","W"]],"timingvisible":false,"tabcounter":13,"stave":1,"totalstaves":2,"instrument":"4bass","selectedtuning":"4bass","version":"13"}

Member for

3 months 4 weeks
Submitted by Phaedron on Tue, 2020-10-20 15:44