Sound will begin in 5 seconds

CB TSTPS

Chords
01234567891011121314151617181920212223
E
B
G
D
A
E
B
0 1 2 3 4 5 6 7 8 9 10 11 12 13 14 15 16 17 18 19 20 21 22 23
Song Science #1: How Pros Use 6 Chords to Write Hit Songs
(/) Slide Up  (\) Slide Down  (h) Hammer On  (p) Pull Off  (b) Bend (r) Release (v) Vibrato

Stave 1:

E|--------------------------
B|--------------------------
G|-----------7--6--6--5--5--
D|--9--9--7--7--6--6--5--5--
A|--9--9--7--5--4--4--3--3--
E|--7--7--5-----------------

Stave 2:

E|-----------------
B|-----------------
G|-----------------
D|--9--------------
A|--9--------------
E|--7--------------

Stave 3:

E|-----------------------------
B|-----------------------------
G|--6--6-----6-----4--4-----4--
D|--6--6-----6-----4--4-----4--
A|--4--4-----4-----2--2-----2--
E|-----------------------------

Stave 4:

E|--------------
B|--------------
G|--7-----9-----
D|--7-----9-----
A|--5-----7-----
E|--------------

Stave 5:

E|--------
B|--------
G|-----7--
D|--7--7--
A|--7--5--
E|--5-----

Stave 6:

E|-----------------------------
B|-----------------------------
G|-----------------------------
D|--9--7--5--4--1--4--5--7--9--
A|--9--7--5--4--1--4--5--7--9--
E|--7--5--3--2-----2--3--5--7--

Stave 7:

E|------------------------------------------------------------
B|------------------------------------------------------------
G|--9--9--9--9--6--6--6--6------------------------------------
D|--------------------------9--9--9--9--7--7--7-----7-----7v--
A|-----------------------------------------------9-----9------
E|------------------------------------------------------------

http://www.guitartabcreator.com
Guitar Tab Creator is intended to store guitar tab created through the tool. It currently does not support in-line text editing. Any text you place in here will be lost. If you need to comment on your tab, please use the "Tab Notes" section located below.