Mama Guitar 1

Chords

01234567891011121314151617181920212223
E
B
G
D
A
E
B
0 1 2 3 4 5 6 7 8 9 10 11 12 13 14 15 16 17 18 19 20 21 22 23
(/) Slide Up  (\) Slide Down  (h) Hammer On  (p) Pull Off  (b) Bend (r) Release (v) Vibrato

Stave 1:

E|-------------------------------------------------------------------------------------------------
B|-------------------------------------------------------------------------------------------------
G|-------------------------------------------------------------------------------------------------
D|-------------------------------------------------------------------7--5--4--2--2--2--2-----------
A|--7--7--7--7--7--7--7--7--7--7--10--10--6--6--6--7--9--7--7--9--9-----------------------9--9--7--
E|-------------------------------------------------------------------------------------------------

Stave 2:

E|----------------------------------------------------------------------------------12--
B|------------------------------------------------------------------------------12------
G|--5--7------------------5------------------9--11--9--7--7-----------------------------
D|--5--7---------------5--5---------------3--x--x---x--x--x-----------------------------
A|--3--5--5--7--5v--0--5--3--3--5--3v--0--3--7--9---7--5--5-----------2--3/6/7----------
E|---------------------3------------------1------------------0--2--3--------------------

Stave 3:

E|-----------------------------------------------------------------------------------------------------------
B|-----------------------------------------------------------------------------------------------12--11--12--
G|-----------------------------------------------------------------------------------------------12--11--12--
D|-------------------------------------------------------------------7--5--4--4h5\2--------------------------
A|--7--7--7--7--7--7--7--7--7--7--10--10--6--6--6--7--9--7--7--9--9------------------7--7--9--9--------------
E|-----------------------------------------------------------------------------------------------------------

Stave 4:

E|------------------------------|-------------------------------------------------------------------------------
B|------------------------------|-------------------------------------------------------------------------------
G|------------------------------|----------------------------------------------------------------------------9--
D|---------------7--------------|------------7----------------------------7--5--4--2-----9--8--9-------------9--
A|--7--7--9--10-----10--9p7--7--|--7--9--10-----10--9--7--7--6--7--9--10--------------7-----------10--10--9--7--
E|------------------------------|-------------------------------------------------------------------------------

Stave 5:

E|--------------------------------------------------------------------------------
B|--------------------------------------------------------------------------------
G|--5--7------------------5------------------9--11--9--7--7--------------5--------
D|--5--7---------------5--5---------------3--x--x---x--x--x--------------5--4--2--
A|--3--5--5--7--5v--0--5--3--3--5--3v--0--3--7--9---7--5--5-----------2--3--3--2--
E|---------------------3------------------1------------------0--2--3--------2--0--

Stave 6:

E|----------------------------------------------------------------------
B|----------------------------------------------------------------------
G|--9--12--8--8--9--11--9--11--14--12--11--------------9--11------------
D|--x--x---x--x--x--x---x--x---x---x---x---------------x--x-------------
A|--7--10--6--6--7--9---7--9---12--10--9---9h10--9--7--7--9---6--9--7v--
E|----------------------------------------------------------------------

Stave 7:

E|---------------|-------------------------------------------|-----------------------------
B|---------------|-------------------------------------------|-----------------------------
G|---------------|-------------------------------------------|-----------------------------
D|---------------|-------------------------------------------|-----9--8--8h9-----9---------
A|-----7---------|-------------------------------------7--6--|--7-------------7-----9--10--
E|--0-----5--7v--|--7--8--5v--7--8--6v--7--8--5--7--5--------|-----------------------------

Stave 8:

E|----------------------------------------------------
B|----------------------------------------------------
G|----------------------------------------------------
D|----------------------------------------------------
A|--9--10--7v--9--10--8v--9--10--7v--10--9--7h9p7--6--
E|----------------------------------------------------

Stave 9:

E|---------------------------------------------------------
B|--5--12--10--8--10--12--7--8--5--------------------------
G|-----14--12----------------------4--5--7--5--4--3--3h4v--
D|---------------------------------------------------------
A|---------------------------------------------------------
E|---------------------------------------------------------

Stave 10:

E|-----------------------------------------------------------------------------------------------
B|-----------------------------------------------------------------------------------------------
G|-----------------------------------------------------------------------------------------------
D|---------------------------------------------------------7--5--4--2-----------------7----------
A|-----7--5--3--2--2/7--7--7--9b10r9--7--6--6--7--9--7--9-----------------7--7--7--9-----10--9v--
E|--7------------------------------------------------------------------7-------------------------

							http://www.guitartabcreator.com
Instruments
{"strings":[[[".",".",".",".",".",".",".",".",".",".",".",".",".",".",".",".",".",".",".",".",".",".",".",".",".",".",".",".",".",".","."],[".",".",".",".",".",".",".",".",".",".",".",".",".",".",".",".",".",".",".",".",".",".",".",".",".",".",".",".",".",".","."],[".",".",".",".",".",".",".",".",".",".",".",".",".",".",".",".",".",".",".",".",".",".",".",".",".",".",".",".",".",".","."],[".",".",".",".",".",".",".",".",".",".",".",".",".",".",".",".",".",".",".",".",".",7,5,4,2,2,2,2,".",".","."],[7,7,7,7,7,7,7,7,7,7,10,10,6,6,6,7,9,7,7,9,9,".",".",".",".",".",".",".",9,9,7],[".",".",".",".",".",".",".",".",".",".",".",".",".",".",".",".",".",".",".",".",".",".",".",".",".",".",".",".",".",".","."]],[[".",".",".",".",".",".",".",".",".",".",".",".",".",".",".",".",".",".",".",".",".",".",".",".",".",".",".",".",".",".",12],[".",".",".",".",".",".",".",".",".",".",".",".",".",".",".",".",".",".",".",".",".",".",".",".",".",".",".",".",".",12,"."],[5,7,".",".",".",".",".",".",5,".",".",".",".",".",".",9,11,9,7,7,".",".",".",".",".",".",".",".",".",".","."],[5,7,".",".",".",".",".",5,5,".",".",".",".",".",3,"x9","x9","x9","x10","x7",".",".",".",".",".",".",".",".",".",".","."],[3,5,5,7,5,"v",0,5,3,3,5,3,"v",0,3,7,9,7,5,5,".",".",".",2,3,"/",6,"/",7,".","."],[".",".",".",".",".",".",".",3,".",".",".",".",".",".",1,".",".",".",".",".",0,2,3,".",".",".",".",".",".",".","."]],[[".",".",".",".",".",".",".",".",".",".",".",".",".",".",".",".",".",".",".",".",".",".",".",".",".",".",".",".",".",".",".",".",".",".",".","."],[".",".",".",".",".",".",".",".",".",".",".",".",".",".",".",".",".",".",".",".",".",".",".",".",".",".",".",".",".",".",".",".",".",12,11,12],[".",".",".",".",".",".",".",".",".",".",".",".",".",".",".",".",".",".",".",".",".",".",".",".",".",".",".",".",".",".",".",".",".",12,11,12],[".",".",".",".",".",".",".",".",".",".",".",".",".",".",".",".",".",".",".",".",".",7,5,4,4,"h",5,"\\",2,".",".",".",".",".",".","."],[7,7,7,7,7,7,7,7,7,7,10,10,6,6,6,7,9,7,7,9,9,".",".",".",".",".",".",".",".",7,7,9,9,".",".","."],[".",".",".",".",".",".",".",".",".",".",".",".",".",".",".",".",".",".",".",".",".",".",".",".",".",".",".",".",".",".",".",".",".",".",".","."]],[[".",".",".",".",".",".",".",".",".",".","|",".",".",".",".",".",".",".",".",".",".",".",".",".",".",".",".",".",".",".",".",".",".",".","."],[".",".",".",".",".",".",".",".",".",".","|",".",".",".",".",".",".",".",".",".",".",".",".",".",".",".",".",".",".",".",".",".",".",".","."],[".",".",".",".",".",".",".",".",".",".","|",".",".",".",".",".",".",".",".",".",".",".",".",".",".",".",".",".",".",".",".",".",".",".",9],[".",".",".",".",7,".",".",".",".",".","|",".",".",".",7,".",".",".",".",".",".",".",".",7,5,4,2,".",9,8,9,".",".",".",9],[7,7,9,10,".",10,9,"p",7,7,"|",7,9,10,".",10,9,7,7,6,7,9,10,".",".",".",".",7,".",".",".",10,10,9,7],[".",".",".",".",".",".",".",".",".",".","|",".",".",".",".",".",".",".",".",".",".",".",".",".",".",".",".",".",".",".",".",".",".",".","."]],[[".",".",".",".",".",".",".",".",".",".",".",".",".",".",".",".",".",".",".",".",".",".",".",".",".",".","."],[".",".",".",".",".",".",".",".",".",".",".",".",".",".",".",".",".",".",".",".",".",".",".",".",".",".","."],[5,7,".",".",".",".",".",".",5,".",".",".",".",".",".",9,11,9,7,7,".",".",".",".",5,".","."],[5,7,".",".",".",".",".",5,5,".",".",".",".",".",3,"x8","x10","x8","x8","x9",".",".",".",".",5,4,2],[3,5,5,7,5,"v",0,5,3,3,5,3,"v",0,3,7,9,7,5,5,".",".",".",2,3,3,2],[".",".",".",".",".",".",".",3,".",".",".",".",".",".",1,".",".",".",".",".",0,2,3,".",".",2,0]],[[".",".",".",".",".",".",".",".",".",".",".",".",".",".",".",".",".",".",".",".",".","."],[".",".",".",".",".",".",".",".",".",".",".",".",".",".",".",".",".",".",".",".",".","."],[9,12,8,8,9,11,9,11,14,12,11,".",".",".",".",".",9,11,".",".",".","."],["x17","x10","x11","x9","x11","x10","x10","x11","x13","x14","x14",".",".",".",".",".","x12","x14",".",".",".","."],[7,10,6,6,7,9,7,9,12,10,9,9,"h",10,9,7,7,9,6,9,7,"v"],[".",".",".",".",".",".",".",".",".",".",".",".",".",".",".",".",".",".",".",".",".","."]],[[".",".",".",".",".","|",".",".",".",".",".",".",".",".",".",".",".",".",".",".",".","|",".",".",".",".",".",".",".",".",".","."],[".",".",".",".",".","|",".",".",".",".",".",".",".",".",".",".",".",".",".",".",".","|",".",".",".",".",".",".",".",".",".","."],[".",".",".",".",".","|",".",".",".",".",".",".",".",".",".",".",".",".",".",".",".","|",".",".",".",".",".",".",".",".",".","."],[".",".",".",".",".","|",".",".",".",".",".",".",".",".",".",".",".",".",".",".",".","|",".",9,8,8,"h",9,".",9,".","."],[".",7,".",".",".","|",".",".",".",".",".",".",".",".",".",".",".",".",".",7,6,"|",7,".",".",".",".",".",7,".",9,10],[0,".",5,7,"v","|",7,8,5,"v",7,8,6,"v",7,8,5,7,5,".",".","|",".",".",".",".",".",".",".",".",".","."]],[[".",".",".",".",".",".",".",".",".",".",".",".",".",".",".",".",".",".",".","."],[".",".",".",".",".",".",".",".",".",".",".",".",".",".",".",".",".",".",".","."],[".",".",".",".",".",".",".",".",".",".",".",".",".",".",".",".",".",".",".","."],[".",".",".",".",".",".",".",".",".",".",".",".",".",".",".",".",".",".",".","."],[9,10,7,"v",9,10,8,"v",9,10,7,"v",10,9,7,"h",9,"p",7,6],[".",".",".",".",".",".",".",".",".",".",".",".",".",".",".",".",".",".",".","."]],[[".",".",".",".",".",".",".",".",".",".",".",".",".",".",".",".",".",".","."],[5,12,10,8,10,12,7,8,5,".",".",".",".",".",".",".",".",".","."],[".",14,12,".",".",".",".",".",".",4,5,7,5,4,3,3,"h",4,"v"],[".",".",".",".",".",".",".",".",".",".",".",".",".",".",".",".",".",".","."],[".",".",".",".",".",".",".",".",".",".",".",".",".",".",".",".",".",".","."],[".",".",".",".",".",".",".",".",".",".",".",".",".",".",".",".",".",".","."]],[[".",".",".",".",".",".",".",".",".",".",".",".",".",".",".",".",".",".",".",".",".",".",".",".",".",".",".",".",".",".",".",".",".",".","."],[".",".",".",".",".",".",".",".",".",".",".",".",".",".",".",".",".",".",".",".",".",".",".",".",".",".",".",".",".",".",".",".",".",".","."],[".",".",".",".",".",".",".",".",".",".",".",".",".",".",".",".",".",".",".",".",".",".",".",".",".",".",".",".",".",".",".",".",".",".","."],[".",".",".",".",".",".",".",".",".",".",".",".",".",".",".",".",".",".",".",".",".",".",7,5,4,2,".",".",".",".",".",7,".",".","."],[".",7,5,3,2,2,"/",7,7,7,9,"b",10,"r",9,7,6,6,7,9,7,9,".",".",".",".",".",7,7,7,9,".",10,9,"v"],[7,".",".",".",".",".",".",".",".",".",".",".",".",".",".",".",".",".",".",".",".",".",".",".",".",".",7,".",".",".",".",".",".",".","."]]],"numberofstrings":6,"notes":["E","B","G","D","A","E","B"],"capo":0,"stringnotes":["E4","B3","G3","D3","A2","E2"],"comments":["Stave 1:","Stave 2:","Stave 3:","Stave 4:","Stave 5:","Stave 6:","Stave 7:","Stave 8:","Stave 9:","Stave 10:"],"timing":[["W","W","W","W","W","W","W","W","W","W","W","W","W","W","W","W","W","W","W","W","W","W","W","W","W","W","W","W","W","W","W"],["W","W","W","W","W","W","W","W","W","W","W","W",null,"W","W","W","W","W","W","W","W","W","W","W","W",null,"W",null,"W","W","W"],["W","W","W","W","W","W","W","W","W","W","W","W","W","W","W","W","W","W","W","W","W","W","W","W","W",null,"W",null,"W","W","W","W","W","W","W","W"],["W","W","W","W","W","W","W",null,"W","W",null,"W","W","W","W","W","W","W","W","W","W","W","W","W","W","W","W","W","W","W","W","W","W","W","W"],["W","W","W","W","W",null,"W","W","W","W","W","W","W","W","W","W","W","W","W","W","W","W","W","W","W","W","W"],["W","W","W","W","W","W","W","W","W","W","W","W","W","W","W","W","W","W","W","W","W"],["W","W","W","W",null,null,"W","W","W",null,"W","W","W",null,"W","W","W","W","W","W","W",null,"W","W","W","W",null,"W","W","W","W","W",null,"W","W","W",null,"W","W","W",null,"W","W","W",null,"W","W","W",null,"W"],["W","W","W",null,"W","W","W",null,"W","W","W",null,"W","W","W",null,"W",null,"W","W"],["W","W","W","W","W","W","W","W","W","W","W","W","W","W","W","W",null,"W"],["W","W","W","W","W","W",null,"W","W","W","W",null,"W",null,"W","W","W","W","W","W","W","W","W","W","W","W","W","W","W","W","W","W","W","W"]],"timingvisible":false,"tabcounter":35,"stave":9,"totalstaves":10,"instrument":"6guitar","selectedtuning":"6_standard","version":"13"}

Member for

1 month 1 week
Submitted by PetsieX2 on Fri, 2020-10-23 04:54