Sound will begin in 5 seconds

Warm Up Exorcises (Page 1)

01234567891011121314151617181920212223
E
B
G
D
A
E
B
0 1 2 3 4 5 6 7 8 9 10 11 12 13 14 15 16 17 18 19 20 21 22 23
Song Science #1: How Pros Use 6 Chords to Write Hit Songs
(/) Slide Up  (\) Slide Down  (h) Hammer On  (p) Pull Off  (b) Bend (r) Release (v) Vibrato

Stave 1:

E|-----------------------------------------1-2-3-4/5-4-3-2-----------------------------------------
B|---------------------------------1-2-3-4-----------------5-4-3-2---------------------------------
G|-------------------------1-2-3-4---------------------------------5-4-3-2-------------------------
D|-----------------1-2-3-4-------------------------------------------------5-4-3-2-----------------
A|---------1-2-3-4-----------------------------------------------------------------5-4-3-2---------
E|-1-2-3-4---------------------------------------------------------------------------------5-4-3-2-

Stave 2:

E|-------------------------------------2-4-1-3/4-2-------------------------------------------------
B|-----------------------------2-4-1-3-------------5-3-4-2-----------------------------------------
G|---------------------2-4-1-3-----------------------------5-3-4-2---------------------------------
D|-------------2-4-1-3---------------------------------------------5-3-4-2-------------------------
A|-----2-4-1-3-------------------------------------------------------------5-3-4-2-------------4-6-
E|-1-3-----------------------------------------------------------------------------5-3-4-2/3-5-----

Stave 3:

E|-----------------------------8-10-10-8-----------------------------------------------------------
B|---------------------6-8-------------------8-6-----------------------------------------7-9-------
G|-------------4-6---------7-9-----------9-7---------6-4-------------------------5-7---------8-10--
D|-----2-4---------5-7---------------------------7-5---------4-2---------3-5---------6-8-----------
A|---------3-5-------------------------------------------5-3-----------------4-6-------------------
E|-1-3-----------------------------------------------------------3-1/2-4---------------------------

Stave 4:

E|-----------3-----------------------------------------5-------------------------------------------
B|---------3---3-------------------9-----------------5---5--------------------11-------------------
G|-------4-------4-------------5-8---8-------------5-------5-------------6-10----10-6--------------
D|-----5-----------5---------6---------6---------7-----------7---------8--------------8------------
A|---5---------------5-----6-------------6-----7---------------7-----8------------------8----------
E|-3-------------------3/4-----------------4/5-------------------5/6----------------------6/7------

http://www.guitartabcreator.com
Guitar Tab Creator is intended to store guitar tab created through the tool. It currently does not support in-line text editing. Any text you place in here will be lost. If you need to comment on your tab, please use the "Tab Notes" section located below.