Sound will begin in 5 seconds

Viene Un Rey

01234567891011121314151617181920212223
E
B
G
D
A
E
B
0 1 2 3 4 5 6 7 8 9 10 11 12 13 14 15 16 17 18 19 20 21 22 23
Song Science #1: How Pros Use 6 Chords to Write Hit Songs
(/) Slide Up  (\) Slide Down  (h) Hammer On  (p) Pull Off  (b) Bend (r) Release (v) Vibrato

Intro Part 1

E|--------------------------------------
B|--10--11--10--11/13--13/15--11--------
G|--------------------------------------
D|--------------------------------------
A|--------------------------------------
E|--------------------------------------

Intro Part 2

E|--_--------------13--13/15----------
B|--10--11--10--11-------------15--15--
G|--_---------------------------------
D|--_---------------------------------
A|--_---------------------------------
E|--_---------------------------------

Intro Part 3

E|---------------------10/18--17--
B|--10--11--10--11/13-------------
G|--------------------------------
D|--------------------------------
A|--------------------------------
E|--------------------------------

Intro Part 4

E|---------------------------------------------
B|--10--11--10--11/13--13/15--11--10--6--4--3--
G|---------------------------------------------
D|---------------------------------------------
A|---------------------------------------------
E|---------------------------------------------

Verse

E|------------------10------------------13--
B|--10--11--10--11------10--11--10--11------
G|------------------------------------------
D|------------------------------------------
A|------------------------------------------
E|------------------------------------------

http://www.guitartabcreator.com
Guitar Tab Creator is intended to store guitar tab created through the tool. It currently does not support in-line text editing. Any text you place in here will be lost. If you need to comment on your tab, please use the "Tab Notes" section located below.