Rise by MADKID (Shield Hero OP 1)

Chords

01234567891011121314151617181920212223
E
B
G
D
A
E
B
0 1 2 3 4 5 6 7 8 9 10 11 12 13 14 15 16 17 18 19 20 21 22 23
(/) Slide Up  (\) Slide Down  (h) Hammer On  (p) Pull Off  (b) Bend (r) Release (v) Vibrato

Capo Fret 2

Stave 1:

E|-----------------------------------------------------------------
B|-----------------------------------------------------------------
G|--2--0--2--0--2--0--2--0--5--7-----2--0--2--0--2--0--2--0--5--7--
D|-----------------------------------------------------------------
A|--0-----0-----0-----0--x--3--5-----0-----0-----0-----0-----3--5--
E|-----------------------------------------------------------------

Stave 2:

E|-----------1--0--------------------1--0--------
B|--------1--------3--1-----------1--------3--1--
G|--0--2--------------------0--2-----------------
D|-----------------------------------------------
A|--------------0-----3-----------------0-----3--
E|--1-----3-----------------1-----3--------------

Stave 3:

E|--------------------------------------------------------0--------------
B|--1--1--1--1-----0--1-----1--1--1-----0--1-----1--1--3-----3--1--0--1--
G|--------------2--------------------2-----------------------------------
D|-----------------------------------------------------------------------
A|-----------------------------------------------0--------------------3--
E|--1-----------------------3--------------------------------------------

Stave 4:

E|-----------------------------------------0-----------------3--1--0-----
B|--1--1--1--1-----0--1-----1--1--1--1--3-----3-----1--1--------------3--
G|--------------2--------------------------------------------------------
D|-----------------------------------------------------------------------
A|--------------------------------------------------0-----------------3--
E|--1-----------------------3--------------------------------------------

Stave 5:

E|--------------------------------------------------------------
B|--------------------------------------------------------------
G|--------------------------------------------------------------
D|--2--2--2--2--2--2--2--2--2--2--2--2--2--2--2--2--2--2--2--2--
A|--------------------------------------------------------------
E|--------------------------------------------------------------

Stave 6:

E|-----------------------------------------------------------
B|-----------------------------------------------------------
G|-----------------------------------------------------------
D|--2--2--2--2--2--2--2--2--2--2--2--2--2--2--2--2--2--2--2--
A|-----------------------------------------------------------
E|-----------------------------------------------------------

Stave 7:

E|--------------------------------------------------------------------
B|--------------------------------------------------------------------
G|--------------------------------------------------------------------
D|--2--2--2--2--2--2--2--2--2--2--2--2--2--2--2--2--2--2--2--2--2--2--
A|--------------------------------------------------------------------
E|--------------------------------------------------------------------

Stave 8:

E|--3--1--0-----------1--0-----0-----0-----0-----------------------0--
B|-----------3--1--3--------------3-----3-----3--------------1--3-----
G|--------------------------------------------------2--2--2-----------
D|--------------------------------------------------------------------
A|--------------------------------------------------------------------
E|--------------------------------------------------------------------

Stave 9:

E|--0-----0-----0--------------------------------------------0--1--0-----
B|-----3-----3-----3--------3--1--1-----1--1--1--1--1--1--3--------------
G|-----------------------2--------------------------------------------2--
D|-----------------------------------------------------------------------
A|-----------------------------------------------------------------------
E|-----------------------------------------------------------------------

Stave 10:

E|--------1--0--------0--------------------------3--0-----0--0--0--0--0--
B|--3--5--------1--3-----------------------------------3-----------------
G|--------------------------------------------2--------------------------
D|--------------------------2--2--2--0--2--------------------------------
A|-----------------------------------------------------------------------
E|-----------------------------------------------------------------------

Stave 11:

E|-----3--0-----0-----------0--0--0--------------0-----0-----------------0-----0-----
B|-----------3--------1--3-----------------1--3-----3-----3--------1--3-----3-----3--
G|--0--------------2--------------------2-----------------------2--------------------
D|-----------------------------------------------------------------------------------
A|-----------------------------------------------------------------------------------
E|-----------------------------------------------------------------------------------

Stave 12:

E|-----3--0--------1--0--------3--0-----0--0--0--0--0--------3--0-----0-----------0--0--0--
B|-----------3--1--------------------3-----------------------------3--------1--3-----------
G|--2-----------------------2-----------------------------2--------------2-----------------
D|-----------------------------------------------------------------------------------------
A|-----------------------------------------------------------------------------------------
E|-----------------------------------------------------------------------------------------

Stave 13:

E|-----------0-----0-----------------0-----0--------3--0--------1--0--
B|-----1--3-----3-----3--------1--3-----3-----------------3--1--------
G|--2-----------------------2--------------------2--------------------
D|--------------------------------------------------------------------
A|--------------------------------------------------------------------
E|--------------------------------------------------------------------

Stave 14:

E|-----------1--0-----x--------------1--0-----x-----
B|--------1--------3--1-----------1--------3--1-----
G|--0--2--------------------0--2--------------------
D|--------------------------------------------------
A|--------------------------------------------------
E|--------------------------------------------------

							http://www.guitartabcreator.com
Instruments
{"strings":[[[".",".",".",".",".",".",".",".",".",".","_",".",".",".",".",".",".",".",".",".","."],[".",".",".",".",".",".",".",".",".",".","_",".",".",".",".",".",".",".",".",".","."],[2,0,2,0,2,0,2,0,5,7,"_",2,0,2,0,2,0,2,0,5,7],[".",".",".",".",".",".",".",".",".",".","_",".",".",".",".",".",".",".",".",".","."],[0,".",0,".",0,".",0,"x",3,5,"_",0,".",0,".",0,".",0,".",3,5],[".",".",".",".",".",".",".",".",".",".","_",".",".",".",".",".",".",".",".",".","."]],[[".",".",".",1,0,".",".","_",".",".",".",1,0,".","."],[".",".",1,".",".",3,1,"_",".",".",1,".",".",3,1],[0,2,".",".",".",".",".","_",0,2,".",".",".",".","."],[".",".",".",".",".",".",".","_",".",".",".",".",".",".","."],[".",".",".",".",0,".",3,"_",".",".",".",".",0,".",3],[1,".",3,".",".",".",".","_",1,".",3,".",".",".","."]],[[".",".",".",".",".",".",".","_",".",".",".",".",".",".","_",".",".",".",0,".",".",".","."],[1,1,1,1,".",0,1,"_",1,1,1,".",0,1,"_",1,1,3,".",3,1,0,1],[".",".",".",".",2,".",".","_",".",".",".",2,".",".","_",".",".",".",".",".",".",".","."],[".",".",".",".",".",".",".","_",".",".",".",".",".",".","_",".",".",".",".",".",".",".","."],[".",".",".",".",".",".",".","_",".",".",".",".",".",".","_",0,".",".",".",".",".",".",3],[1,".",".",".",".",".",".","_",3,".",".",".",".",".","_",".",".",".",".",".",".",".","."]],[[".",".",".",".",".",".",".","_",".",".",".",".",".",0,".","_",".",".","_",3,1,0,"."],[1,1,1,1,".",0,1,"_",1,1,1,1,3,".",3,"_",1,1,"_",".",".",".",3],[".",".",".",".",2,".",".","_",".",".",".",".",".",".",".","_",".",".","_",".",".",".","."],[".",".",".",".",".",".",".","_",".",".",".",".",".",".",".","_",".",".","_",".",".",".","."],[".",".",".",".",".",".",".","_",".",".",".",".",".",".",".","_",0,".","_",".",".",".",3],[1,".",".",".",".",".",".","_",3,".",".",".",".",".",".","_",".",".","_",".",".",".","."]],[[".",".",".",".",".",".",".",".",".",".",".",".",".",".",".",".",".",".",".","."],[".",".",".",".",".",".",".",".",".",".",".",".",".",".",".",".",".",".",".","."],[".",".",".",".",".",".",".",".",".",".",".",".",".",".",".",".",".",".",".","."],[2,2,2,2,2,2,2,2,2,2,2,2,2,2,2,2,2,2,2,2],[".",".",".",".",".",".",".",".",".",".",".",".",".",".",".",".",".",".",".","."],[".",".",".",".",".",".",".",".",".",".",".",".",".",".",".",".",".",".",".","."]],[[".",".",".",".",".",".",".",".",".",".",".",".",".",".",".",".",".",".","."],[".",".",".",".",".",".",".",".",".",".",".",".",".",".",".",".",".",".","."],[".",".",".",".",".",".",".",".",".",".",".",".",".",".",".",".",".",".","."],[2,2,2,2,2,2,2,2,2,2,2,2,2,2,2,2,2,2,2],[".",".",".",".",".",".",".",".",".",".",".",".",".",".",".",".",".",".","."],[".",".",".",".",".",".",".",".",".",".",".",".",".",".",".",".",".",".","."]],[[".",".",".",".",".",".",".",".",".",".",".",".",".",".",".",".",".",".",".",".",".","."],[".",".",".",".",".",".",".",".",".",".",".",".",".",".",".",".",".",".",".",".",".","."],[".",".",".",".",".",".",".",".",".",".",".",".",".",".",".",".",".",".",".",".",".","."],[2,2,2,2,2,2,2,2,2,2,2,2,2,2,2,2,2,2,2,2,2,2],[".",".",".",".",".",".",".",".",".",".",".",".",".",".",".",".",".",".",".",".",".","."],[".",".",".",".",".",".",".",".",".",".",".",".",".",".",".",".",".",".",".",".",".","."]],[[3,1,0,".",".",".",1,0,"_",0,".",0,".",0,".","_",".",".",".",".",".",0],[".",".",".",3,1,3,".",".","_",".",3,".",3,".",3,"_",".",".",".",1,3,"."],[".",".",".",".",".",".",".",".","_",".",".",".",".",".",".","_",2,2,2,".",".","."],[".",".",".",".",".",".",".",".","_",".",".",".",".",".",".","_",".",".",".",".",".","."],[".",".",".",".",".",".",".",".","_",".",".",".",".",".",".","_",".",".",".",".",".","."],[".",".",".",".",".",".",".",".","_",".",".",".",".",".",".","_",".",".",".",".",".","."]],[[0,".",0,".",0,".","_",".",".",".",".","_",".",".",".",".",".",".",".",0,1,0,"."],[".",3,".",3,".",3,"_",".",3,1,1,"_",1,1,1,1,1,1,3,".",".",".","."],[".",".",".",".",".",".","_",2,".",".",".","_",".",".",".",".",".",".",".",".",".",".",2],[".",".",".",".",".",".","_",".",".",".",".","_",".",".",".",".",".",".",".",".",".",".","."],[".",".",".",".",".",".","_",".",".",".",".","_",".",".",".",".",".",".",".",".",".",".","."],[".",".",".",".",".",".","_",".",".",".",".","_",".",".",".",".",".",".",".",".",".",".","."]],[[".",".",1,0,".",".",0,"_",".",".",".",".",".","_",".",3,0,".",0,0,0,0,0],[3,5,".",".",1,3,".","_",".",".",".",".",".","_",".",".",".",3,".",".",".",".","."],[".",".",".",".",".",".",".","_",".",".",".",".",".","_",2,".",".",".",".",".",".",".","."],[".",".",".",".",".",".",".","_",2,2,2,0,2,"_",".",".",".",".",".",".",".",".","."],[".",".",".",".",".",".",".","_",".",".",".",".",".","_",".",".",".",".",".",".",".",".","."],[".",".",".",".",".",".",".","_",".",".",".",".",".","_",".",".",".",".",".",".",".",".","."]],[[".",3,0,".",0,".",".",".",0,0,0,"_",".",".",".",0,".",0,".","_",".",".",".",0,".",0,"."],[".",".",".",3,".",".",1,3,".",".",".","_",".",1,3,".",3,".",3,"_",".",1,3,".",3,".",3],[0,".",".",".",".",2,".",".",".",".",".","_",2,".",".",".",".",".",".","_",2,".",".",".",".",".","."],[".",".",".",".",".",".",".",".",".",".",".","_",".",".",".",".",".",".",".","_",".",".",".",".",".",".","."],[".",".",".",".",".",".",".",".",".",".",".","_",".",".",".",".",".",".",".","_",".",".",".",".",".",".","."],[".",".",".",".",".",".",".",".",".",".",".","_",".",".",".",".",".",".",".","_",".",".",".",".",".",".","."]],[[".",3,0,".",".",1,0,"_",".",3,0,".",0,0,0,0,0,"_",".",3,0,".",0,".",".",".",0,0,0],[".",".",".",3,1,".",".","_",".",".",".",3,".",".",".",".",".","_",".",".",".",3,".",".",1,3,".",".","."],[2,".",".",".",".",".",".","_",2,".",".",".",".",".",".",".",".","_",2,".",".",".",".",2,".",".",".",".","."],[".",".",".",".",".",".",".","_",".",".",".",".",".",".",".",".",".","_",".",".",".",".",".",".",".",".",".",".","."],[".",".",".",".",".",".",".","_",".",".",".",".",".",".",".",".",".","_",".",".",".",".",".",".",".",".",".",".","."],[".",".",".",".",".",".",".","_",".",".",".",".",".",".",".",".",".","_",".",".",".",".",".",".",".",".",".",".","."]],[[".",".",".",0,".",0,".","_",".",".",".",0,".",0,"_",".",3,0,".",".",1,0],[".",1,3,".",3,".",3,"_",".",1,3,".",3,".","_",".",".",".",3,1,".","."],[2,".",".",".",".",".",".","_",2,".",".",".",".",".","_",2,".",".",".",".",".","."],[".",".",".",".",".",".",".","_",".",".",".",".",".",".","_",".",".",".",".",".",".","."],[".",".",".",".",".",".",".","_",".",".",".",".",".",".","_",".",".",".",".",".",".","."],[".",".",".",".",".",".",".","_",".",".",".",".",".",".","_",".",".",".",".",".",".","."]],[[".",".",".",1,0,".","x","_",".",".",".",1,0,".","x","_"],[".",".",1,".",".",3,1,"_",".",".",1,".",".",3,1,"_"],[0,2,".",".",".",".",".","_",0,2,".",".",".",".",".","_"],[".",".",".",".",".",".",".","_",".",".",".",".",".",".",".","_"],[".",".",".",".",".",".",".","_",".",".",".",".",".",".",".","_"],[".",".",".",".",".",".",".","_",".",".",".",".",".",".",".","_"]]],"numberofstrings":6,"notes":["E","B","G","D","A","E","B"],"capo":"2","stringnotes":["E4","B3","G3","D3","A2","E2"],"comments":["Stave 1:","Stave 2:","Stave 3:","Stave 4:","Stave 5:","Stave 6:","Stave 7:","Stave 8:","Stave 9:","Stave 10:","Stave 11:","Stave 12:","Stave 13:","Stave 14:"],"timing":[["W","W","W","W","W","W","W","W",null,"W","W","W","W","W","W","W","W"],["W","W","W","W","W","W","W","W","W","W","W","W","W","W","W",null,"W"],["W","W","W","W","W","W","W",null,"W","W","W","W","W","W","W","W","W","W","W","W","W","W","W","W"],["W","W","W","W","W","W","W","W","W","W","W","W","W","W","W","W","W","W",null,"W","W","W","W"],["W","W","W","W","W","W","W","W","W","W","W","W","W","W","W","W","W","W","W","W","W","W","W","W","W","W","W","W","W","W","W","W","W","W","W","W","W","W","W","W","W","W","W","W","W","W","W","W","W","W","W"],["W","W","W","W","W","W","W","W","W","W","W","W","W","W","W","W","W","W","W"],["W","W","W","W","W","W","W","W","W","W","W","W","W","W","W","W","W","W","W","W","W","W","W","W"],["W","W","W","W","W","W","W","W",null,"W","W","W","W","W","W",null,"W","W","W","W","W","W"],["W","W","W","W","W","W",null,"W","W","W","W",null,"W","W","W","W","W","W","W","W","W","W","W"],["W","W","W","W","W","W","W",null,"W","W","W","W","W",null,"W","W","W","W","W","W","W","W","W",null,"W"],["W","W","W","W","W","W","W","W","W","W","W","W","W","W","W","W","W","W","W","W","W","W","W","W","W"],["W","W","W","W","W","W","W",null,"W","W","W","W","W","W","W","W",null,"W","W","W","W","W","W","W","W","W","W","W"],["W","W","W","W","W","W","W",null,"W","W","W","W","W","W",null,"W","W","W","W","W","W",null,"W"],["W","W","W","W","W","W","W",null,"W","W","W","W","W","W","W",null,"W"]],"timingvisible":false,"tabcounter":18,"stave":10,"totalstaves":14,"instrument":"6guitar","selectedtuning":"6_standard","version":"13"}

Member for

1 month 3 weeks
Submitted by Peter Sam on Wed, 2020-09-16 10:46