Departures - Egoist (Guilty Crown Ed 1)

Chords

01234567891011121314151617181920212223
E
B
G
D
A
E
B
0 1 2 3 4 5 6 7 8 9 10 11 12 13 14 15 16 17 18 19 20 21 22 23
(/) Slide Up  (\) Slide Down  (h) Hammer On  (p) Pull Off  (b) Bend (r) Release (v) Vibrato

Capo Fret 7

scale

E|--------------------------------------------0--2--3--
B|-----------------------------------0--1--3-----------
G|-----------------------------0--2--------------------
D|--------------------0--2--4--------------------------
A|-----------0--2--3-----------------------------------
E|--0--2--3--------------------------------------------

Stave 2:

E|--------------------------------------------------------------------------------
B|--------------------------------------------0-----0-----0--1--0--3--0-----------
G|--0--2--0--2--0--2--0--0--2--0-----------0-----2-----2-----------------2--2--0--
D|--------------------------------4--0--------------------------------------------
A|--------------------------------------------------------------------------------
E|--------------------------------------------------------------------------------

Stave 3:

E|-----------------------0--------------------------------
B|--0--1--3--3--3--3--3-----0--0--0--------------0--------
G|--x--x-----------------------------2--2--0--------0--0--
D|--------------------------------------------------------
A|--------------------------------------------------------
E|--------------------------------------------------------

Stave 4:

E|--------------------------------------------------------------------------------
B|--------------------------------------------0-----0-----0--1--0--3--0-----------
G|--0--2--0--2--0--2--0--0--2--0-----------0-----2-----2-----------------2--2--0--
D|--------------------------------4--0--------------------------------------------
A|--------------------------------------------------------------------------------
E|--------------------------------------------------------------------------------

Stave 5:

E|-----------------------0-----------------------------------------------------
B|--0--1--3--3--3--3--3-----0--0--0--------------0-----------------------------
G|-----------------------------------2--2--0--------0--0-----0--2--0-----0--0--
D|--------------------------------------------------------------------4--------
A|-----------------------------------------------------------------------------
E|-----------------------------------------------------------------------------

Stave 6:

E|-----------------3--------------------------------------------------3-----------
B|--0--1--0--1--3-----1--0-----------0--1--0--1--0--0--------0--1--3-----1--0-----
G|--------------------------0-----0-----------------------0--------------------0--
D|--------------------------------------------------------------------------------
A|--------------------------------------------------------------------------------
E|--------------------------------------------------------------------------------

Stave 7:

E|--
B|--
G|--
D|--
A|--
E|--

							http://www.guitartabcreator.com
Instruments
{"strings":[[[".",".",".",".",".",".",".",".",".",".",".",".",".",".",0,2,3],[".",".",".",".",".",".",".",".",".",".",".",0,1,3,".",".","."],[".",".",".",".",".",".",".",".",".",0,2,".",".",".",".",".","."],[".",".",".",".",".",".",0,2,4,".",".",".",".",".",".",".","."],[".",".",".",0,2,3,".",".",".",".",".",".",".",".",".",".","."],[0,2,3,".",".",".",".",".",".",".",".",".",".",".",".",".","."]],[[".",".",".",".",".",".",".",".",".",".",".",".","_",".",".",".",".",".",".",".",".",".",".",".",".","."],[".",".",".",".",".",".",".",".",".",".",".",".","_",".",0,".",0,".",0,1,0,3,0,".",".","."],[0,2,0,2,0,2,0,0,2,0,".",".","_",0,".",2,".",2,".",".",".",".",".",2,2,0],[".",".",".",".",".",".",".",".",".",".",4,0,"_",".",".",".",".",".",".",".",".",".",".",".",".","."],[".",".",".",".",".",".",".",".",".",".",".",".","_",".",".",".",".",".",".",".",".",".",".",".",".","."],[".",".",".",".",".",".",".",".",".",".",".",".","_",".",".",".",".",".",".",".",".",".",".",".",".","."]],[[".",".",".",".",".",".",".",0,".",".",".",".",".",".","_",".",".","."],[0,1,3,3,3,3,3,".",0,0,0,".",".",".","_",0,".","."],["x","x",".",".",".",".",".",".",".",".",".",2,2,0,"_",".",0,0],[".",".",".",".",".",".",".",".",".",".",".",".",".",".","_",".",".","."],[".",".",".",".",".",".",".",".",".",".",".",".",".",".","_",".",".","."],[".",".",".",".",".",".",".",".",".",".",".",".",".",".","_",".",".","."]],[[".",".",".",".",".",".",".",".",".",".",".",".","_",".",".",".",".",".",".",".",".",".",".",".",".","."],[".",".",".",".",".",".",".",".",".",".",".",".","_",".",0,".",0,".",0,1,0,3,0,".",".","."],[0,2,0,2,0,2,0,0,2,0,".",".","_",0,".",2,".",2,".",".",".",".",".",2,2,0],[".",".",".",".",".",".",".",".",".",".",4,0,"_",".",".",".",".",".",".",".",".",".",".",".",".","."],[".",".",".",".",".",".",".",".",".",".",".",".","_",".",".",".",".",".",".",".",".",".",".",".",".","."],[".",".",".",".",".",".",".",".",".",".",".",".","_",".",".",".",".",".",".",".",".",".",".",".",".","."]],[[".",".",".",".",".",".",".",0,".",".",".",".",".",".","_",".",".",".","_",".",".",".",".",".","."],[0,1,3,3,3,3,3,".",0,0,0,".",".",".","_",0,".",".","_",".",".",".",".",".","."],[".",".",".",".",".",".",".",".",".",".",".",2,2,0,"_",".",0,0,"_",0,2,0,".",0,0],[".",".",".",".",".",".",".",".",".",".",".",".",".",".","_",".",".",".","_",".",".",".",4,".","."],[".",".",".",".",".",".",".",".",".",".",".",".",".",".","_",".",".",".","_",".",".",".",".",".","."],[".",".",".",".",".",".",".",".",".",".",".",".",".",".","_",".",".",".","_",".",".",".",".",".","."]],[[".",".",".",".",".",3,".",".",".","_",".",".",".",".",".",".",".","_",".",".",".",".",3,".",".","."],[0,1,0,1,3,".",1,0,".","_",".",0,1,0,1,0,0,"_",".",0,1,3,".",1,0,"."],[".",".",".",".",".",".",".",".",0,"_",0,".",".",".",".",".",".","_",0,".",".",".",".",".",".",0],[".",".",".",".",".",".",".",".",".","_",".",".",".",".",".",".",".","_",".",".",".",".",".",".",".","."],[".",".",".",".",".",".",".",".",".","_",".",".",".",".",".",".",".","_",".",".",".",".",".",".",".","."],[".",".",".",".",".",".",".",".",".","_",".",".",".",".",".",".",".","_",".",".",".",".",".",".",".","."]],[[],[],[],[],[],[]]],"numberofstrings":6,"notes":["E","B","G","D","A","E","B"],"capo":"7","stringnotes":["E4","B3","G3","D3","A2","E2"],"comments":["scale","Stave 2:","Stave 3:","Stave 4:","Stave 5:","Stave 6:","Stave 7:"],"timing":[["W","W","W","W","W","W","W","W","W","W","W","W","W","W","W","W","W"],["W","W","W","W","W","W","W","W","W","W","W",null,"W","W","W","W","W","W","W","W","W","W","W","W","W","W",null,"W"],["W","W","W","W","W","W","W","W","W","W","W","W","W","W","W","W","W","W"],["W","W","W","W","W","W","W","W","W","W","W","W",null,"W","W","W","W","W","W","W","W","W","W","W","W","W"],["W","W","W","W","W","W","W","W","W","W","W","W","W","W",null,"W","W","W",null,"W","W","W","W","W","W"],["W","W","W","W","W","W","W","W","W",null,"W","W","W","W","W","W","W","W","W","W","W","W","W","W","W"],[]],"timingvisible":false,"tabcounter":0,"stave":6,"totalstaves":7,"instrument":"6guitar","selectedtuning":"6_standard","version":"13"}

Member for

3 months
Submitted by Peter Sam on Fri, 2020-10-16 18:26