A Harmonic Minor

01234567891011121314151617181920212223
E
B
G
D
A
E
B
0 1 2 3 4 5 6 7 8 9 10 11 12 13 14 15 16 17 18 19 20 21 22 23
(/) Slide Up  (\) Slide Down  (h) Hammer On  (p) Pull Off  (b) Bend (r) Release (v) Vibrato

Stave 1:

E|-----------------------------------0--1--4--5--
B|--------------------------0--1--3--------------
G|--------------------1--2-----------------------
D|-----------0--2--3-----------------------------
A|--0--2--3--------------------------------------
E|-----------------------------------------------

Stave 2:

E|-----------------------------------------------------------------------------------
B|-----------------------------------------------------------------------------------
G|--------------------------------------------------------------2--1--------------2--
D|--2--0--------------2--3--2--------------3--6--------------6--------3--2--0-----2--
A|--------3--2--0-----2--------5--3--2-----3-----8--7--5--3--5--3--------------3--3--
E|--4--------------4--4--5--------------5--5--7--------------7-----------------------

Stave 3:

E|-----------------------
B|-----------------------
G|--4--2--------------4--
D|--------6--3--2-----3--
A|--5--------------5--5--
E|-----------------------

							http://www.guitartabcreator.com
Chords

Instruments
{"strings":[[[".",".",".",".",".",".",".",".",".",".",".",0,1,4,5],[".",".",".",".",".",".",".",".",0,1,3,".",".",".","."],[".",".",".",".",".",".",1,2,".",".",".",".",".",".","."],[".",".",".",0,2,3,".",".",".",".",".",".",".",".","."],[0,2,3,".",".",".",".",".",".",".",".",".",".",".","."],[".",".",".",".",".",".",".",".",".",".",".",".",".",".","."]],[[".",".",".",".",".",".",".",".",".",".",".",".",".",".",".",".",".",".",".",".",".",".",".",".",".",".","."],[".",".",".",".",".",".",".",".",".",".",".",".",".",".",".",".",".",".",".",".",".",".",".",".",".",".","."],[".",".",".",".",".",".",".",".",".",".",".",".",".",".",".",".",".",".",".",".",2,1,".",".",".",".",2],[2,0,".",".",".",".",2,3,2,".",".",".",".",3,6,".",".",".",".",6,".",".",3,2,0,".",2],[".",".",3,2,0,".",2,".",".",5,3,2,".",3,".",8,7,5,3,5,3,".",".",".",".",3,3],[4,".",".",".",".",4,4,5,".",".",".",".",5,5,7,".",".",".",".",7,".",".",".",".",".",".","."]],[[".",".",".",".",".",".","."],[".",".",".",".",".",".","."],[4,2,".",".",".",".",4],[".",".",6,3,2,".",3],[5,".",".",".",".",5,5],[".",".",".",".",".",".","."]]],"numberofstrings":6,"notes":["E","B","G","D","A","E","B"],"capo":0,"stringnotes":["E4","B3","G3","D3","A2","E2"],"comments":["Stave 1:","Stave 2:","Stave 3:"],"timing":[["W","W","W","W","W","W","W","W","W","W","W","W","W","W","W"],["W","W","W","W","W","W","W","W","W","W","W","W","W","W","W","W","W","W","W","W","W","W","W","W","W","W","W"],["W","W","W","W","W","W","W"]],"timingvisible":false,"tabcounter":6,"stave":2,"totalstaves":3,"instrument":"6guitar","selectedtuning":"6_standard","version":"13"}

Member for

4 months
About Me
music all day
Submitted by petefeltman on Wed, 2021-01-13 13:03