Sound will begin in 5 seconds

Solo Rock and Roll Shower complete 2nd voice.

01234567891011121314151617181920212223
E
B
G
D
A
E
B
0 1 2 3 4 5 6 7 8 9 10 11 12 13 14 15 16 17 18 19 20 21 22 23
Song Science #1: How Pros Use 6 Chords to Write Hit Songs
(/) Slide Up  (\) Slide Down  (h) Hammer On  (p) Pull Off  (b) Bend (r) Release (v) Vibrato

Stave 1:

Eb|---------------------------------
Bb|---------------------------------
Gb|---------------------------------
Db|---------------------------------
Ab|--12--14--12--11--9--11--12--12--
Eb|---------------------------------

Stave 2:

Eb|------------------------------------------------------------------------------
Bb|------------------------------------------------------------------------------
Gb|------------------------------------------------------------------------------
Db|----------11--12--11------11--12--11--12--14--12--11------11--------------11--
Ab|--12--14--------------14------------------------------14------14--12--14------
Eb|------------------------------------------------------------------------------

Stave 3:

Eb|-------------------------
Bb|-------------------------
Gb|-------------------------
Db|--11--14--12--11--9--11--
Ab|-------------------------
Eb|-------------------------

Stave 4:

Eb|----------------------
Bb|----------------------
Gb|----------------------
Db|--------------11--14--
Ab|--11--12--14----------
Eb|----------------------

Stave 5:

Eb|---------------------
Bb|---------------------
Gb|-------------11--13--
Db|--9--11--12----------
Ab|---------------------
Eb|---------------------

Stave 6:

Eb|------------------------------
Bb|--------------14--15--16--17--
Gb|--13--14--16------------------
Db|------------------------------
Ab|------------------------------
Eb|------------------------------

http://www.guitartabcreator.com
Guitar Tab Creator is intended to store guitar tab created through the tool. It currently does not support in-line text editing. Any text you place in here will be lost. If you need to comment on your tab, please use the "Tab Notes" section located below.