Sound will begin in 5 seconds

Depths of Kronos - Just Slam It

01234567891011121314151617181920212223
E
B
G
D
A
E
B
0 1 2 3 4 5 6 7 8 9 10 11 12 13 14 15 16 17 18 19 20 21 22 23
Song Science #1: How Pros Use 6 Chords to Write Hit Songs
(/) Slide Up  (\) Slide Down  (h) Hammer On  (p) Pull Off  (b) Bend (r) Release (v) Vibrato

Stave 1:

G|--------------------------------------------------------------
D|--------------------------------------------------------------
A|--------------------------------------------------------------
E|--------------------------------5-----------4-----------------
B|--2--1--0--3--2--1--2--1--5--8-----8--4--7-----7--2--1--0--1--

Stave 2:

G|--------------------------------------------------------------------------------------------------
D|--------------------------------------------------------------------------------------------------
A|--------------------------------------------------------------------------------------------------
E|--------------------------------------------------------------------------------------------------
B|--2--1--0--3--2--1--2--1--2--1--0--3--2--1--2--1--2--1--0--3--2--1--2--1--2--1--0--3--2--1--2--1--

Stave 3:

G|--------------------------------------------------------------------------------------------------
D|--------------------------------------------------------------------------------------------------
A|--------------5--4--5--4--------------8--7--5--7--------------5--4--5--4--------------------------
E|--------------------------------------------------------------------------------------------------
B|--5--4--5--4--------------5--4--5--4--------------5--4--5--4--------------5--4--2--4--2--1--2--1--

Stave 4:

G|-----------------------------------
D|-----------------------------------
A|-----------------------------------
E|-----------------------------------
B|--4--5-----3--4--3-----2--1--2--1--

Stave 5:

G|--------------------------------------------4--3-----------------------------------------
D|--------------------------------------3--2-----------------------------------------------
A|--------2--1--------2--1--------2--1--------------------2--1--------2--1--------2--1--0--
E|-----------------------------------------------------------------------------------------
B|--2--1--------2--1--------2--1--------------------2--1--------2--1--------2--1-----------

Stave 6:

G|-----------------------------------------------------------------------------------
D|-----------------------------------------------------------------------------------
A|-----------------------------------------------------------------------------------
E|--------------3--2--0-----------3--2--3--------------3--2--0--2-----------3--2--0--
B|--2--2--2--2-----------3--3--3-----------2--2--2--2--------------3--3--3-----------

Stave 7:

G|-----------------------------------------------------------------------------------------------------------------------
D|-----------------------------------------------------------------------------------------------------------------------
A|-----------------------------------------------------------------------------------------------------------------------
E|-----------------------------------------------------------------------------------------------------------------------
B|--2-----3--2--0--2--3--------------2-----3--2--0--2--1--------------2-----3--2--0--2--3--------------2--3--2--0--2--0--

Stave 8:

G|-----------------------------------------------------------------------------------------------
D|-----------------------------------------------------------------------------------------------
A|-----------------------------------------------------------------------------------------------
E|-----------------------------------------------------------------------2--2--2--2--2--2--2--2--
B|--2--3-----2--3--2--3--1--2--1--2--1--2--2--3-----2--3--2--3--1--2--1--------------------------

http://www.guitartabcreator.com
Guitar Tab Creator is intended to store guitar tab created through the tool. It currently does not support in-line text editing. Any text you place in here will be lost. If you need to comment on your tab, please use the "Tab Notes" section located below.