Sound will begin in 5 seconds

Velvet Sky Live

Chords
01234567891011121314151617181920212223
E
B
G
D
A
E
B
0 1 2 3 4 5 6 7 8 9 10 11 12 13 14 15 16 17 18 19 20 21 22 23
(/) Slide Up  (\) Slide Down  (h) Hammer On  (p) Pull Off  (b) Bend (r) Release (v) Vibrato

Stave 1:

E|--------------------|-----------------------|----------------------2--|--
B|--7-7---------------|--7-----7-----7--7-----|-----7-----7----------2--|--
G|--6h8---------------|--6-----6-----6--6-----|-----6-----6-----4-6--3--|--
D|-------8\6p4--------|--8-----8-----8--8-----|-----8-----8-----4-6--4--|--
A|--------------6--9--|-----6--------6--6-----|--9-----6-------------4--|--
E|--------------------|-----------9--------9--|--------------9-------2--|--

Stave 2:

E|--6--6--6--6------------------|--6--6--6--8------------------|--
B|--7--7--7--7------------------|--7--7--7--7------------------|--
G|--6--6--6--6------------------|--6--6--6--6------------------|--
D|--8--8--8--8---------8--8-----|--8--8--8--8---------8--8-----|--
A|--9--9--9--9---------6--6-----|--6--6--6--6---------6--6-----|--
E|--------------6h9p6--------9--|--------------6h9p6--------9--|--

Stave 3:

E|--6--6--6--6------------------|--6--6--6--6--6--6--6--|--
B|--7--7--7--7------------------|--7--7--7--6--6--6--6--|--
G|--6--6--6--6------------------|--6--6--6--6--6--6--6--|--
D|--8--8--8--8---------8--8-----|--8--8--8--6--6--6--6--|--
A|--9--9--9--9---------6--6-----|--6--6--6--6--6--6--6--|--
E|--------------6h9p6--------9--|-----------------------|--

Stave 4:

E|--6--------6--------------|--6--6--6--6--6--6--|--6--6--6--6--6--6--|--
B|--7--------6--------------|--7--7--7--7--7--7--|--6--6--6--6--6--6--|--
G|--6--------6--8/9\8p6-----|--8--8--8--8--8--8--|--6--6--6--6--6--6--|--
D|--8--------6-----------8--|--8--8--8--8--8--8--|--6--6--6--6--6--6--|--
A|--9--------6--------------|--6--6--6--6--6--6--|--6--6--6--6--6--6--|--
E|--------------------------|--------------------|--------------------|--

Stave 5:

E|--4--------7--|--6--6--6--6------------------6--|--
B|--4--------7--|--7--7--7--7------------------7--|--
G|--5--------8--|--6--6--6--6------------------6--|--
D|--4--------7--|--8--8--8--8---------8--8-----8--|--
A|--6--------9--|--9--9--9--9---------6--6-----9--|--
E|--4--------7--|--------------6h9p6--------9-----|--

http://www.guitartabcreator.com
Guitar Tab Creator is intended to store guitar tab created through the tool. It currently does not support in-line text editing. Any text you place in here will be lost. If you need to comment on your tab, please use the "Tab Notes" section located below.