1st blues scale scale

01234567891011121314151617181920212223
E
B
G
D
A
E
B
0 1 2 3 4 5 6 7 8 9 10 11 12 13 14 15 16 17 18 19 20 21 22 23
(/) Slide Up  (\) Slide Down  (h) Hammer On  (p) Pull Off  (b) Bend (r) Release (v) Vibrato

Stave 1:

E|--------------------------------------0--3--
B|--------------------------------0--3--------
G|--------------------0--2--3--4--------------
D|--------------0--2--------------------------
A|-----0--1--2--------------------------------
E|--3-----------------------------------------

Stave 2:

E|--3--3--3-----------------------------------------
B|-----------0--3--3--4--5--------5--8--10--11--12--
G|-----------------2--3--4--4--7--------------------
D|-----------------3--4--5--------------------------
A|--------------------------------------------------
E|--------------------------------------------------

Stave 3:

E|----------12--15---------------------
B|--12--15----------15--12--11--10--8--
G|-------------------------------------
D|-------------------------------------
A|-------------------------------------
E|-------------------------------------

Stave 4:

E|--8--9--10--10--7----------------------------
B|--8--9--10---------11--10--8-----------------
G|------------------------------9--7-----------
D|------------------------------------9--8--7--
A|---------------------------------------------
E|---------------------------------------------

Stave 5:

E|-----------------------
B|-----------------------
G|-----------------------
D|--5--------------------
A|-----7--5--------------
E|-----------7--6--5--3--

							http://www.guitartabcreator.com
Chords

genre
Instruments
{"title":"1st blues scale scale","strings":[[[".",".",".",".",".",".",".",".",".",".",".",".",0,3],[".",".",".",".",".",".",".",".",".",".",0,3,".","."],[".",".",".",".",".",".",0,2,3,4,".",".",".","."],[".",".",".",".",0,2,".",".",".",".",".",".",".","."],[".",0,1,2,".",".",".",".",".",".",".",".",".","."],[3,".",".",".",".",".",".",".",".",".",".",".",".","."]],[[3,3,3,".",".",".",".",".",".",".",".",".",".",".","."],[".",".",".",0,3,3,4,5,".",".",5,8,10,11,12],[".",".",".",".",".",2,3,4,4,7,".",".",".",".","."],[".",".",".",".",".",3,4,5,".",".",".",".",".",".","."],[".",".",".",".",".",".",".",".",".",".",".",".",".",".","."],[".",".",".",".",".",".",".",".",".",".",".",".",".",".","."]],[[".",".",12,15,".",".",".",".","."],[12,15,".",".",15,12,11,10,8],[".",".",".",".",".",".",".",".","."],[".",".",".",".",".",".",".",".","."],[".",".",".",".",".",".",".",".","."],[".",".",".",".",".",".",".",".","."]],[[8,9,10,10,7,".",".",".",".",".",".",".","."],[8,9,10,".",".",11,10,8,".",".",".",".","."],[".",".",".",".",".",".",".",".",9,7,".",".","."],[".",".",".",".",".",".",".",".",".",".",9,8,7],[".",".",".",".",".",".",".",".",".",".",".",".","."],[".",".",".",".",".",".",".",".",".",".",".",".","."]],[[".",".",".",".",".",".","."],[".",".",".",".",".",".","."],[".",".",".",".",".",".","."],[5,".",".",".",".",".","."],[".",7,5,".",".",".","."],[".",".",".",7,6,5,3]]],"numberofstrings":6,"notes":["E","B","G","D","A","E","B"],"capo":0,"stringnotes":["E4","B3","G3","D3","A2","E2"],"comments":["Stave 1:","Stave 2:","Stave 3:","Stave 4:","Stave 5:"],"timing":[["W","W","W","W","W","W","W","W","W","W","W","W","W","W"],["W","W","W","W","W","W","W","W","W","W","W","W","W","W","W"],["W","W","W","W","W","W","W","W","W"],["W","W","W","W","W","W","W","W","W","W","W","W","W"],["W","W","W","W","W","W","W"]],"timingvisible":false,"tabcounter":7,"stave":4,"totalstaves":5,"instrument":"6guitar","selectedtuning":"6_standard","version":"13"}

Member for

9 months
Submitted by Pennyd on Fri, 2020-04-17 10:22