The Munsters

Chords

01234567891011121314151617181920212223
E
B
G
D
A
E
B
0 1 2 3 4 5 6 7 8 9 10 11 12 13 14 15 16 17 18 19 20 21 22 23
(/) Slide Up  (\) Slide Down  (h) Hammer On  (p) Pull Off  (b) Bend (r) Release (v) Vibrato

Stave 1:

E|---------------------|---------------------------------------|-------------------------------|-----------------------------|--------------------------------------|--
B|---------------------|---------------------------------------|-------------------------------|-----------------------------|--------------------------------------|--
G|------------------9--|---------------------------------------|------------------9------------|-----------------------------|--------------------------------------|--
D|------------8--9-----|--10--9--7--9--7--5--7--5--4-----------|------------8--9-----10--9--7--|--5--7--9--------------------|------12--12--12--10--9--10--7--9--5--|--
A|--7--10--7-----------|------------------------------7--5--7--|--7--10--7---------------------|-----------------------6--7--|--------------------------------------|--
E|---------------------|---------------------------------------|-------------------------------|-----------7--7--7--9--------|--10----------------------------------|--

Stave 2:

E|----------------------------------|-------------------------------|------------------------------|--
B|----------------------------------|-------------------------------|------------------------------|--
G|----------------------------------|------------------9------------|------------------------------|--
D|----------------------------------|------------8--9---------------|--5--7--9---------------------|--
A|--12--12--12--10--9--10--7--9--6--|--7--10--7-----------10--9--7--|------------------------8--9--|--
E|----------------------------------|-------------------------------|-----------9--9--9--11--------|--

							http://www.guitartabcreator.com
Instruments
{"strings":[[[".",".",".",".",".",".","|",".",".",".",".",".",".",".",".",".",".",".",".","|",".",".",".",".",".",".",".",".",".","|",".",".",".",".",".",".",".",".",".","|",".",".",".",".",".",".",".",".",".",".","|"],[".",".",".",".",".",".","|",".",".",".",".",".",".",".",".",".",".",".",".","|",".",".",".",".",".",".",".",".",".","|",".",".",".",".",".",".",".",".",".","|",".",".",".",".",".",".",".",".",".",".","|"],[".",".",".",".",".",9,"|",".",".",".",".",".",".",".",".",".",".",".",".","|",".",".",".",".",".",9,".",".",".","|",".",".",".",".",".",".",".",".",".","|",".",".",".",".",".",".",".",".",".",".","|"],[".",".",".",8,9,".","|",10,9,7,9,7,5,7,5,4,".",".",".","|",".",".",".",8,9,".",10,9,7,"|",5,7,9,".",".",".",".",".",".","|",".",12,12,12,10,9,10,7,9,5,"|"],[7,10,7,".",".",".","|",".",".",".",".",".",".",".",".",".",7,5,7,"|",7,10,7,".",".",".",".",".",".","|",".",".",".",".",".",".",".",6,7,"|",".",".",".",".",".",".",".",".",".",".","|"],[".",".",".",".",".",".","|",".",".",".",".",".",".",".",".",".",".",".",".","|",".",".",".",".",".",".",".",".",".","|",".",".",".",7,7,7,9,".",".","|",10,".",".",".",".",".",".",".",".",".","|"]],[[".",".",".",".",".",".",".",".",".","|",".",".",".",".",".",".",".",".",".","|",".",".",".",".",".",".",".",".",".","|"],[".",".",".",".",".",".",".",".",".","|",".",".",".",".",".",".",".",".",".","|",".",".",".",".",".",".",".",".",".","|"],[".",".",".",".",".",".",".",".",".","|",".",".",".",".",".",9,".",".",".","|",".",".",".",".",".",".",".",".",".","|"],[".",".",".",".",".",".",".",".",".","|",".",".",".",8,9,".",".",".",".","|",5,7,9,".",".",".",".",".",".","|"],[12,12,12,10,9,10,7,9,6,"|",7,10,7,".",".",".",10,9,7,"|",".",".",".",".",".",".",".",8,9,"|"],[".",".",".",".",".",".",".",".",".","|",".",".",".",".",".",".",".",".",".","|",".",".",".",9,9,9,11,".",".","|"]]],"numberofstrings":6,"notes":["E","B","G","D","A","E","B"],"capo":0,"stringnotes":["E4","B3","G3","D3","A2","E2"],"comments":["Stave 1:","Stave 2:"],"timing":[[null,null,null,null,null,null,null,null,null,null,null,null,null,null,null,null,null,null,null,null,null,null,null,null,null,null,null,null,null,null,null,null,null,null,null,null,null,null,null,null,"W","W","W","W","W","W","W","W","W","W"],["W","W","W","W","W","W","W","W","W",null,"W","W","W","W","W","W","W","W","W",null,"W","W","W","W","W","W","W","W","W"]],"timingvisible":false,"tabcounter":30,"stave":1,"totalstaves":2,"instrument":"6guitar","selectedtuning":"6_standard","version":"13"}

Member for

2 weeks 2 days
Submitted by Pee Dub on Thu, 2020-05-21 07:12