Sound will begin in 5 seconds

[Solo] Sapato Velho - Roupa Nova (Final

01234567891011121314151617181920212223
E
B
G
D
A
E
B
0 1 2 3 4 5 6 7 8 9 10 11 12 13 14 15 16 17 18 19 20 21 22 23
Song Science #1: How Pros Use 6 Chords to Write Hit Songs
(/) Slide Up  (\) Slide Down  (h) Hammer On  (p) Pull Off  (b) Bend (r) Release (v) Vibrato

Stave 1:

E|-------5--------8---------10---------12---------13--15--13--12v--
B|--5h6-----8/10-----10/12------12/13------13/15-------------------
G|-----------------------------------------------------------------
D|-----------------------------------------------------------------
A|-----------------------------------------------------------------
E|-----------------------------------------------------------------

Stave 2:

E|--
B|--
G|--
D|--
A|--
E|--

Stave 3:

E|----------9--12--9--10------9----------
B|--10--12----------------12-----10--12--
G|---------------------------------------
D|---------------------------------------
A|---------------------------------------
E|---------------------------------------

Stave 4:

E|-------------------------------
B|------9--10--12--9--10------9--
G|--11--------------------11-----
D|-------------------------------
A|-------------------------------
E|-------------------------------

Stave 5:

E|-----------------
B|-----------------
G|----------9--11--
D|--11--12---------
A|-----------------
E|-----------------

http://www.guitartabcreator.com
Guitar Tab Creator is intended to store guitar tab created through the tool. It currently does not support in-line text editing. Any text you place in here will be lost. If you need to comment on your tab, please use the "Tab Notes" section located below.