Sound will begin in 5 seconds

Escala 1.0

01234567891011121314151617181920212223
E
B
G
D
A
E
B
0 1 2 3 4 5 6 7 8 9 10 11 12 13 14 15 16 17 18 19 20 21 22 23
Song Science #1: How Pros Use 6 Chords to Write Hit Songs
(/) Slide Up  (\) Slide Down  (h) Hammer On  (p) Pull Off  (b) Bend (r) Release (v) Vibrato

Stave 1:

E|-----------------------------------------------5--7--8--
B|--------------------------------------5--7--8-----------
G|-----------------------------4--5--7--------------------
D|--------------------4--5--7-----------------------------
A|-----------3--5--7--------------------------------------
E|--3--5--7-----------------------------------------------

Stave 2:

E|------------------------------------------------7--8--10--
B|--------------------------------------7--8--10------------
G|-----------------------------5--7--9----------------------
D|--------------------5--7--9-------------------------------
A|-----------5--7--9----------------------------------------
E|--5--7--8-------------------------------------------------

Stave 3:

E|-----------------------------------------------------8--10--12--
B|------------------------------------------8--10--12-------------
G|--------------------------------7--9--11------------------------
D|----------------------7--9--10----------------------------------
A|------------7--9--10--------------------------------------------
E|--7--8--10------------------------------------------------------

Stave 4:

E|----------------------------------------------------------10--12--14--
B|----------------------------------------------10--12--13--------------
G|-----------------------------------9--11--12--------------------------
D|------------------------9--10--12-------------------------------------
A|-------------9--10--12------------------------------------------------
E|--8--10--12-----------------------------------------------------------

http://www.guitartabcreator.com
Guitar Tab Creator is intended to store guitar tab created through the tool. It currently does not support in-line text editing. Any text you place in here will be lost. If you need to comment on your tab, please use the "Tab Notes" section located below.