Scarborough Fair

01234567891011121314151617181920212223
E
B
G
D
A
E
B
0 1 2 3 4 5 6 7 8 9 10 11 12 13 14 15 16 17 18 19 20 21 22 23
(/) Slide Up  (\) Slide Down  (h) Hammer On  (p) Pull Off  (b) Bend (r) Release (v) Vibrato

Stave 1:

A|-----------0--0--0-----------------0--------
E|-----1-----1--------0--1--0-----1-----1-----
C|--2-----2--0--------0--------2-----------2--
G|-----------2--------0-----------------------

Stave 2:

A|--0--3--5--3--0--2-----0--|--5--5--5--
E|--1-----5-----1--------1--|-----5-----
C|--0-----5-----0--------2--|-----5-----
G|--2-----7-----2-----0--2--|-----5-----

Stave 3:

A|--3--0--0--------------|------------------
E|--1-----1--3--1--0-----|-------0h1--0-----
C|--0-----0--------0--0--|--0h2----------0--
G|--2-----2--------0-----|------------------

Stave 4:

A|-----------0-----------------------0--------
E|--------------3--1--0-----------1-----1-----
C|--2--2--2-----0-----0--2--0--2-----------2--
G|--------------0-----0-----------------------

							http://www.guitartabcreator.com
Chords

Instruments
{"strings":[[[".",".",".",0,0,0,".",".",".",".",".",0,".","."],[".",1,".",1,".",".",0,1,0,".",1,".",1,"."],[2,".",2,0,".",".",0,".",".",2,".",".",".",2],[".",".",".",2,".",".",0,".",".",".",".",".",".","."]],[[0,3,5,3,0,2,".",0,"|",5,5,5],[1,".",5,".",1,".",".",1,"|",".",5,"."],[0,".",5,".",0,".",".",2,"|",".",5,"."],[2,".",7,".",2,".",0,2,"|",".",5,"."]],[[3,0,0,".",".",".",".","|",".",".",".",".",".",".",".","."],[1,".",1,3,1,0,".","|",".",".",".",0,"h",1,0,"."],[0,".",0,".",".",0,0,"|",0,"h",2,".",".",".",".",0],[2,".",2,".",".",0,".","|",".",".",".",".",".",".",".","."]],[[".",".",".",0,".",".",".",".",".",".",".",0,".","."],[".",".",".",".",3,1,0,".",".",".",1,".",1,"."],[2,2,2,".",0,".",0,2,0,2,".",".",".",2],[".",".",".",".",0,".",0,".",".",".",".",".",".","."]]],"numberofstrings":4,"notes":["A","E","C","G"],"capo":0,"stringnotes":["A4","E4","C3","G3"],"comments":["Stave 1:","Stave 2:","Stave 3:","Stave 4:"],"timing":[["W","W","W","W","W","W","W","W","W","W","W","W","W","W"],["W","W","W","W","W","W","W","W",null,"W","W","W"],["W","W","W","W","W","W","W",null,"W","W","W","W","W","W","W","W"],["W","W","W","W","W","W","W","W","W","W","W","W","W","W"]],"timingvisible":false,"tabcounter":16,"stave":2,"totalstaves":4,"instrument":"ukulele","selectedtuning":"ukulele","version":"13"}

Member for

4 months 2 weeks
Submitted by Pebuit on Mon, 2020-10-12 04:34