Blues 3

01234567891011121314151617181920212223
E
B
G
D
A
E
B
0 1 2 3 4 5 6 7 8 9 10 11 12 13 14 15 16 17 18 19 20 21 22 23
(/) Slide Up  (\) Slide Down  (h) Hammer On  (p) Pull Off  (b) Bend (r) Release (v) Vibrato

Stave 1:

E|--3b5--0------------|--3b5--0----------------|-------------------|------------------------------------|-----
B|----------3p0--3/5--|----------3--0----------|-------------------|------------------------------------|-----
G|--------------------|----------------2-------|--------9------9v--|--------9------11b13--11p9------9v--|-----
D|--------------------|-------------------0h2--|--9/11-----11------|--9/11-----11---------------11------|-----
A|--------------------|------------------------|-------------------|------------------------------------|-----
E|--------------------|------------------------|-------------------|------------------------------------|-----

Stave 2:

E|--10/12v--|--10/12--10--------------------|----0--0--0--0--3b4-----|----0--0--0-------------|--
B|----------|-------------12\10--8----------|--3/5--5--5--5-------5--|--3/5--5--3-------------|--
G|----------|-----------------------9p7--9--|------------------------|-------------4----------|--
D|----------|-------------------------------|------------------------|----------------5b6--2--|--
A|----------|-------------------------------|------------------------|------------------------|--
E|----------|-------------------------------|------------------------|------------------------|--

Stave 3:

E|------------------------|--------------------------------|-----------------12--12v--|--15b17--12--------------------
B|--15--------------------|--15----------------------------|---------12--14-----------|-------------15p12------15/17--
G|------12b14-------------|------12b14---------------------|--12/13-------------------|--------------------14---------
D|-------------14p12--14--|-------------14p12------12--14--|--------------------------|-------------------------------
A|------------------------|--------------------14----------|--------------------------|-------------------------------
E|------------------------|--------------------------------|--------------------------|-------------------------------

Stave 4:

E|--11/12--12--12-----------------|--11/12--12--11/12--12-------------|----------0----------0--|----------------------
B|--11-12--12--12-----------------|--11-12--12--11-12--12-------------|-------0-----0--3b5-----|----------------------
G|-----------------14--12h13------|------------------------14--12h13--|--2b4-------------------|--2b4--2--0-----------
D|----------------------------14--|-----------------------------------|------------------------|-------------2p0--2v--
A|--------------------------------|-----------------------------------|------------------------|----------------------
E|--------------------------------|-----------------------------------|------------------------|----------------------

							http://www.guitartabcreator.com
Chords

Instruments
{"strings":[[[3,"b",5,0,".",".",".",".",".",".","|",3,"b",5,0,".",".",".",".",".",".","|",".",".",".",".",".",".",".","|",".",".",".",".",".",".",".",".",".",".",".",".",".",".","|","."],[".",".",".",".",3,"p",0,3,"/",5,"|",".",".",".",".",3,0,".",".",".",".","|",".",".",".",".",".",".",".","|",".",".",".",".",".",".",".",".",".",".",".",".",".",".","|","."],[".",".",".",".",".",".",".",".",".",".","|",".",".",".",".",".",".",2,".",".",".","|",".",".",".",9,".",9,"v","|",".",".",".",9,".",11,"b",13,11,"p",9,".",9,"v","|","."],[".",".",".",".",".",".",".",".",".",".","|",".",".",".",".",".",".",".",0,"h",2,"|",9,"/",11,".",11,".",".","|",9,"/",11,".",11,".",".",".",".",".",".",11,".",".","|","."],[".",".",".",".",".",".",".",".",".",".","|",".",".",".",".",".",".",".",".",".",".","|",".",".",".",".",".",".",".","|",".",".",".",".",".",".",".",".",".",".",".",".",".",".","|","."],[".",".",".",".",".",".",".",".",".",".","|",".",".",".",".",".",".",".",".",".",".","|",".",".",".",".",".",".",".","|",".",".",".",".",".",".",".",".",".",".",".",".",".",".","|","."]],[[10,"/",12,"v","|",10,"/",12,10,".",".",".",".",".",".",".",".","|",".",".",0,0,0,0,3,"b",4,".","|",".",".",0,0,0,".",".",".",".",".","|"],[".",".",".",".","|",".",".",".",".",12,"\\",10,8,".",".",".",".","|",3,"/",5,5,5,5,".",".",".",5,"|",3,"/",5,5,3,".",".",".",".",".","|"],[".",".",".",".","|",".",".",".",".",".",".",".",".",9,"p",7,9,"|",".",".",".",".",".",".",".",".",".",".","|",".",".",".",".",".",4,".",".",".",".","|"],[".",".",".",".","|",".",".",".",".",".",".",".",".",".",".",".",".","|",".",".",".",".",".",".",".",".",".",".","|",".",".",".",".",".",".",5,"b",6,2,"|"],[".",".",".",".","|",".",".",".",".",".",".",".",".",".",".",".",".","|",".",".",".",".",".",".",".",".",".",".","|",".",".",".",".",".",".",".",".",".",".","|"],[".",".",".",".","|",".",".",".",".",".",".",".",".",".",".",".",".","|",".",".",".",".",".",".",".",".",".",".","|",".",".",".",".",".",".",".",".",".",".","|"]],[[".",".",".",".",".",".",".",".","|",".",".",".",".",".",".",".",".",".",".","|",".",".",".",".",".",12,12,"v","|",15,"b",17,12,".",".",".",".",".",".","."],[15,".",".",".",".",".",".",".","|",15,".",".",".",".",".",".",".",".",".","|",".",".",".",12,14,".",".",".","|",".",".",".",".",15,"p",12,".",15,"/",17],[".",12,"b",14,".",".",".",".","|",".",12,"b",14,".",".",".",".",".",".","|",12,"/",13,".",".",".",".",".","|",".",".",".",".",".",".",".",14,".",".","."],[".",".",".",".",14,"p",12,14,"|",".",".",".",".",14,"p",12,".",12,14,"|",".",".",".",".",".",".",".",".","|",".",".",".",".",".",".",".",".",".",".","."],[".",".",".",".",".",".",".",".","|",".",".",".",".",".",".",".",14,".",".","|",".",".",".",".",".",".",".",".","|",".",".",".",".",".",".",".",".",".",".","."],[".",".",".",".",".",".",".",".","|",".",".",".",".",".",".",".",".",".",".","|",".",".",".",".",".",".",".",".","|",".",".",".",".",".",".",".",".",".",".","."]],[[11,"/",12,12,12,".",".",".",".",".","|",11,"/",12,12,11,"/",12,12,".",".",".",".","|",".",".",".",".",0,".",".",".",".",0,"|",".",".",".",".",".",".",".",".",".","."],[11,".",12,12,12,".",".",".",".",".","|",11,".",12,12,11,".",12,12,".",".",".",".","|",".",".",".",0,".",0,3,"b",5,".","|",".",".",".",".",".",".",".",".",".","."],[".",".",".",".",".",14,12,"h",13,".","|",".",".",".",".",".",".",".",".",14,12,"h",13,"|",2,"b",4,".",".",".",".",".",".",".","|",2,"b",4,2,0,".",".",".",".","."],[".",".",".",".",".",".",".",".",".",14,"|",".",".",".",".",".",".",".",".",".",".",".",".","|",".",".",".",".",".",".",".",".",".",".","|",".",".",".",".",".",2,"p",0,2,"v"],[".",".",".",".",".",".",".",".",".",".","|",".",".",".",".",".",".",".",".",".",".",".",".","|",".",".",".",".",".",".",".",".",".",".","|",".",".",".",".",".",".",".",".",".","."],[".",".",".",".",".",".",".",".",".",".","|",".",".",".",".",".",".",".",".",".",".",".",".","|",".",".",".",".",".",".",".",".",".",".","|",".",".",".",".",".",".",".",".",".","."]]],"numberofstrings":6,"notes":["E","B","G","D","A","E","B"],"capo":0,"stringnotes":["E4","B3","G3","D3","A2","E2"],"comments":["Stave 1:","Stave 2:","Stave 3:","Stave 4:"],"timing":[["W",null,"W","W",null,"W","W",null,"W",null,"W",null,"W","W","W","W","W",null,"W",null,"W",null,"W","W","W","W",null,"W",null,"W","W","W","W","W","W",null,"W",null,"W","W","W",null,null,null,"W","W","W","W"],["W",null,"W",null,null,"W",null,"W","W","W",null,"W","W","W",null,"W","W",null,"W",null,"W","W","W","W","W","W","W","W","W",null,"W",null,"W","W","W","W","W",null,"W","W",null,"W"],["W","W",null,"W","W",null,"W","W",null,"W","W",null,"W","W",null,"W","W","W","W",null,"W",null,"W","W","W","W","W",null,null,"W",null,"W","W","W",null,"W","W","W",null,"W"],["W",null,"W","W","W","W","W","W","W","W","W","W","W","W","W","W","W","W","W","W","W","W","W","W","W",null,"W","W","W","W","W",null,"W","W",null,"W",null,"W","W","W","W",null,"W","W"]],"timingvisible":false,"tabcounter":46,"stave":0,"totalstaves":4,"instrument":"6guitar","selectedtuning":"6_standard","version":"13"}

Member for

4 months 2 weeks
Submitted by Pebuit on Mon, 2020-10-05 04:01