Blues 2

01234567891011121314151617181920212223
E
B
G
D
A
E
B
0 1 2 3 4 5 6 7 8 9 10 11 12 13 14 15 16 17 18 19 20 21 22 23
(/) Slide Up  (\) Slide Down  (h) Hammer On  (p) Pull Off  (b) Bend (r) Release (v) Vibrato

Stave 1:

E|-------5------------8b
B|----------5--8/10v----
G|--7b9-----------------
D|----------------------
A|----------------------
E|----------------------

Stave 2:

E|--10b12b10--8--10------8---------8r
B|-------------------10-----10-------
G|-----------------------------------
D|-----------------------------------
A|-----------------------------------
E|-----------------------------------

Stave 3:

E|--------5----------------------------------------
B|--8b10-----8--5h8p5-----5------------------------
G|---------------------7-----7--5h7p5-----5b-------
D|-------------------------------------7----7v-----
A|-------------------------------------------------
E|-------------------------------------------------

Stave 4:

E|------------------------------5--
B|-----------------------5------5--
G|-----------------------5---------
D|-------5h7p5-----5--7-----7v-----
A|--5/7---------7------------------
E|---------------------------------

Stave 5:

E|-----------------10--12--10h11p10---------------------10\
B|---------10--13--------------------13--10------10--13b---
G|--10/12------------------------------------12------------
D|---------------------------------------------------------
A|---------------------------------------------------------
E|---------------------------------------------------------

Stave 6:

E|-----------------10--12--10h11p10---------------------10r------
B|---------10--13--------------------13--10------10--13b---10v--\
G|--10/12------------------------------------12------------------
D|---------------------------------------------------------------
A|---------------------------------------------------------------
E|---------------------------------------------------------------

Stave 7:

E|----------------
B|----------------
G|--7b8b7--5------
D|------------7v--
A|----------------
E|----------------

Stave 8:

E|-------3-------5--------8--10--10b12b10------8b9--
B|--3/5-----5/8-----8/10-------------------10-------
G|--------------------------------------------------
D|--------------------------------------------------
A|--------------------------------------------------
E|--------------------------------------------------

Stave 9:

E|--------------------------------
B|-------------------9------------
G|-------------7--9--9p7-----7--9\
D|-------6--9-------------9-------
A|--5/7---------------------------
E|--------------------------------

Stave 10:

E|--------------------
B|--6p5---------------
G|-------5-----5/7\5--
D|----------7---------
A|--------------------
E|--------------------

Stave 11:

E|--5--------------
B|-----------------
G|-----8\7--5------
D|-------------7v--
A|-----------------
E|-----------------

Stave 12:

E|--------------8--10--10h11p10p8------8b9------------
B|-------8--10---------------------10-----------------
G|--7/9-------------------------------------9--9--9v--
D|----------------------------------------------------
A|----------------------------------------------------
E|----------------------------------------------------

							http://www.guitartabcreator.com
Chords

Instruments
{"strings":[[[".",".",".",5,".",".",".",".",".",8,"b"],[".",".",".",".",5,8,"/",10,"v",".","."],[7,"b",9,".",".",".",".",".",".",".","."],[".",".",".",".",".",".",".",".",".",".","."],[".",".",".",".",".",".",".",".",".",".","."],[".",".",".",".",".",".",".",".",".",".","."]],[[10,"b",12,"b",10,8,10,".",8,".",".",8,"r"],[".",".",".",".",".",".",".",10,".",10,".",".","."],[".",".",".",".",".",".",".",".",".",".",".",".","."],[".",".",".",".",".",".",".",".",".",".",".",".","."],[".",".",".",".",".",".",".",".",".",".",".",".","."],[".",".",".",".",".",".",".",".",".",".",".",".","."]],[[".",".",".",5,".",".",".",".",".",".",".",".",".",".",".",".",".",".",".",".",".",".",".","_"],[8,"b",10,".",8,5,"h",8,"p",5,".",5,".",".",".",".",".",".",".",".",".",".",".","_"],[".",".",".",".",".",".",".",".",".",".",7,".",7,5,"h",7,"p",5,".",5,"b",".",".","_"],[".",".",".",".",".",".",".",".",".",".",".",".",".",".",".",".",".",".",7,".",".",7,"v","_"],[".",".",".",".",".",".",".",".",".",".",".",".",".",".",".",".",".",".",".",".",".",".",".","_"],[".",".",".",".",".",".",".",".",".",".",".",".",".",".",".",".",".",".",".",".",".",".",".","_"]],[[".",".",".",".",".",".",".",".",".",".",".",".",".",".",5],[".",".",".",".",".",".",".",".",".",".",".",5,".",".",5],[".",".",".",".",".",".",".",".",".",".",".",5,".",".","."],[".",".",".",5,"h",7,"p",5,".",5,7,".",7,"v","."],[5,"/",7,".",".",".",".",".",7,".",".",".",".",".","."],[".",".",".",".",".",".",".",".",".",".",".",".",".",".","."]],[[".",".",".",".",".",10,12,10,"h",11,"p",10,".",".",".",".",".",".",10,"\\"],[".",".",".",10,13,".",".",".",".",".",".",".",13,10,".",10,13,"b",".","."],[10,"/",12,".",".",".",".",".",".",".",".",".",".",".",12,".",".",".",".","."],[".",".",".",".",".",".",".",".",".",".",".",".",".",".",".",".",".",".",".","."],[".",".",".",".",".",".",".",".",".",".",".",".",".",".",".",".",".",".",".","."],[".",".",".",".",".",".",".",".",".",".",".",".",".",".",".",".",".",".",".","."]],[[".",".",".",".",".",10,12,10,"h",11,"p",10,".",".",".",".",".",".",10,"r",".",".","."],[".",".",".",10,13,".",".",".",".",".",".",".",13,10,".",10,13,"b",".",".",10,"v","\\"],[10,"/",12,".",".",".",".",".",".",".",".",".",".",".",12,".",".",".",".",".",".",".","."],[".",".",".",".",".",".",".",".",".",".",".",".",".",".",".",".",".",".",".",".",".",".","."],[".",".",".",".",".",".",".",".",".",".",".",".",".",".",".",".",".",".",".",".",".",".","."],[".",".",".",".",".",".",".",".",".",".",".",".",".",".",".",".",".",".",".",".",".",".","."]],[[".",".",".",".",".",".",".","."],[".",".",".",".",".",".",".","."],[7,"b",8,"b",7,5,".","."],[".",".",".",".",".",".",7,"v"],[".",".",".",".",".",".",".","."],[".",".",".",".",".",".",".","."]],[[".",".",".",3,".",".",".",5,".",".",".",8,10,10,"b",12,"b",10,".",8,"b",9],[3,"/",5,".",5,"/",8,".",8,"/",10,".",".",".",".",".",".",".",10,".",".","."],[".",".",".",".",".",".",".",".",".",".",".",".",".",".",".",".",".",".",".",".",".","."],[".",".",".",".",".",".",".",".",".",".",".",".",".",".",".",".",".",".",".",".",".","."],[".",".",".",".",".",".",".",".",".",".",".",".",".",".",".",".",".",".",".",".",".","."],[".",".",".",".",".",".",".",".",".",".",".",".",".",".",".",".",".",".",".",".",".","."]],[[".",".",".",".",".",".",".",".",".",".",".",".",".","."],[".",".",".",".",".",".",".",9,".",".",".",".",".","."],[".",".",".",".",".",7,9,9,"p",7,".",7,9,"\\"],[".",".",".",6,9,".",".",".",".",".",9,".",".","."],[5,"/",7,".",".",".",".",".",".",".",".",".",".","."],[".",".",".",".",".",".",".",".",".",".",".",".",".","."]],[[".",".",".",".",".",".",".",".",".","."],[6,"p",5,".",".",".",".",".",".","."],[".",".",".",5,".",5,"/",7,"\\",5],[".",".",".",".",7,".",".",".",".","."],[".",".",".",".",".",".",".",".",".","."],[".",".",".",".",".",".",".",".",".","."]],[[5,".",".",".",".",".","."],[".",".",".",".",".",".","."],[".",8,"\\",7,5,".","."],[".",".",".",".",".",7,"v"],[".",".",".",".",".",".","."],[".",".",".",".",".",".","."]],[[".",".",".",".",".",8,10,10,"h",11,"p",10,"p",8,".",8,"b",9,".",".",".","."],[".",".",".",8,10,".",".",".",".",".",".",".",".",".",10,".",".",".",".",".",".","."],[7,"/",9,".",".",".",".",".",".",".",".",".",".",".",".",".",".",".",9,9,9,"v"],[".",".",".",".",".",".",".",".",".",".",".",".",".",".",".",".",".",".",".",".",".","."],[".",".",".",".",".",".",".",".",".",".",".",".",".",".",".",".",".",".",".",".",".","."],[".",".",".",".",".",".",".",".",".",".",".",".",".",".",".",".",".",".",".",".",".","."]]],"numberofstrings":6,"notes":["E","B","G","D","A","E","B"],"capo":0,"stringnotes":["E4","B3","G3","D3","A2","E2"],"comments":["Stave 1:","Stave 2:","Stave 3:","Stave 4:","Stave 5:","Stave 6:","Stave 7:","Stave 8:","Stave 9:","Stave 10:","Stave 11:","Stave 12:"],"timing":[["W",null,"W","W","W","W",null,"W",null,"W"],["W",null,"W",null,"W","W","W","W","W","W","W","W"],["W",null,"W","W","W","W",null,"W",null,"W","W","W","W","W",null,"W","W","W","W","W",null,"W","W"],["W",null,"W","W",null,"W",null,"W","W","W","W","W","W","W","W","W","W"],["W",null,"W","W","W","W","W","W",null,"W",null,"W","W","W","W","W","W","W","W"],["W",null,"W","W","W","W","W","W",null,"W",null,"W","W","W","W","W","W","W","W",null,"W"],["W",null,"W",null,"W","W","W",null,"W",null,null,null,null,null,null,null,null,null,null,null,null,null,"W","W","W"],["W","W","W","W","W","W","W","W","W",null,"W","W","W","W",null,"W",null,"W","W","W",null,"W"],["W",null,"W","W","W","W","W","W","W","W","W","W","W"],["W",null,"W","W","W","W",null,"W",null,"W"],["W","W",null,"W","W","W"],["W",null,"W","W","W","W","W","W",null,"W",null,"W",null,"W","W","W",null,"W","W","W","W","W"]],"timingvisible":false,"tabcounter":24,"stave":2,"totalstaves":12,"instrument":"6guitar","selectedtuning":"6_standard","version":"13"}

Member for

4 months 2 weeks
Submitted by Pebuit on Mon, 2020-09-07 08:47