Blues

01234567891011121314151617181920212223
E
B
G
D
A
E
B
0 1 2 3 4 5 6 7 8 9 10 11 12 13 14 15 16 17 18 19 20 21 22 23
(/) Slide Up  (\) Slide Down  (h) Hammer On  (p) Pull Off  (b) Bend (r) Release (v) Vibrato

Stave 1:

E|-----5------------
B|--5-----5--8/10v--
G|------------------
D|------------------
A|------------------
E|------------------

Stave 2:

E|--12--10-------------------------
B|----------13------10--13b14--10--
G|--------------12-----------------
D|---------------------------------
A|---------------------------------
E|---------------------------------

Stave 3:

E|----------------
B|----------------
G|--7b8b7--5------
D|------------7v--
A|----------------
E|----------------

Stave 4:

E|---------------------
B|---------------------
G|----------5b6--------
D|-------5-------7-----
A|--5/7----------------
E|---------------------

Stave 5:

E|------------5---------------------
B|---------------5------------------
G|--7b8--7b8--------7v--5-----5--7--
D|-------------------------7--------
A|----------------------------------
E|----------------------------------

Stave 6:

E|------------------------
B|-------8----------------
G|--7/9-----9--9\7--5--7--
D|------------------------
A|------------------------
E|------------------------

Stave 7:

E|--5--------------
B|-----------------
G|-----8\7--5------
D|-------------7v--
A|-----------------
E|-----------------

Stave 8:

E|-------------------
B|-------------------
G|----------5b6------
D|-------5-------7v--
A|--5/7--------------
E|-------------------

Stave 9:

E|-----------------------------
B|----------15b17--15--13--12--
G|--14--14---------------------
D|-----------------------------
A|-----------------------------
E|-----------------------------

Stave 10:

E|--------------------------
B|--13p10------10--13--10v--
G|---------12---------------
D|--------------------------
A|--------------------------
E|--------------------------

Stave 11:

E|----------------
B|----------------
G|--7b8b7--5------
D|------------7v--
A|----------------
E|----------------

Stave 12:

E|----------
B|---------b
G|----------
D|--5-------
A|-----7--7-
E|----------

							http://www.guitartabcreator.com
Chords

Instruments
{"strings":[[[".",5,".",".",".",".","."],[5,".",5,8,"/",10,"v"],[".",".",".",".",".",".","."],[".",".",".",".",".",".","."],[".",".",".",".",".",".","."],[".",".",".",".",".",".","."]],[[12,10,".",".",".",".",".",".","."],[".",".",13,".",10,13,"b",14,10],[".",".",".",12,".",".",".",".","."],[".",".",".",".",".",".",".",".","."],[".",".",".",".",".",".",".",".","."],[".",".",".",".",".",".",".",".","."]],[[".",".",".",".",".",".",".","."],[".",".",".",".",".",".",".","."],[7,"b",8,"b",7,5,".","."],[".",".",".",".",".",".",7,"v"],[".",".",".",".",".",".",".","."],[".",".",".",".",".",".",".","."]],[[".",".",".",".",".",".",".",".","_"],[".",".",".",".",".",".",".",".","_"],[".",".",".",".",5,"b",6,".","_"],[".",".",".",5,".",".",".",7,"_"],[5,"/",7,".",".",".",".",".","_"],[".",".",".",".",".",".",".",".","_"]],[[".",".",".",".",".",".",5,".",".",".",".",".",".","."],[".",".",".",".",".",".",".",5,".",".",".",".",".","."],[7,"b",8,7,"b",8,".",".",7,"v",5,".",5,7],[".",".",".",".",".",".",".",".",".",".",".",7,".","."],[".",".",".",".",".",".",".",".",".",".",".",".",".","."],[".",".",".",".",".",".",".",".",".",".",".",".",".","."]],[[".",".",".",".",".",".",".",".",".","."],[".",".",".",8,".",".",".",".",".","."],[7,"/",9,".",9,9,"\\",7,5,7],[".",".",".",".",".",".",".",".",".","."],[".",".",".",".",".",".",".",".",".","."],[".",".",".",".",".",".",".",".",".","."]],[[5,".",".",".",".",".","."],[".",".",".",".",".",".","."],[".",8,"\\",7,5,".","."],[".",".",".",".",".",7,"v"],[".",".",".",".",".",".","."],[".",".",".",".",".",".","."]],[[".",".",".",".",".",".",".",".","."],[".",".",".",".",".",".",".",".","."],[".",".",".",".",5,"b",6,".","."],[".",".",".",5,".",".",".",7,"v"],[5,"/",7,".",".",".",".",".","."],[".",".",".",".",".",".",".",".","."]],[[".",".",".",".",".",".",".","."],[".",".",15,"b",17,15,13,12],[14,14,".",".",".",".",".","."],[".",".",".",".",".",".",".","."],[".",".",".",".",".",".",".","."],[".",".",".",".",".",".",".","."]],[[".",".",".",".",".",".",".","."],[13,"p",10,".",10,13,10,"v"],[".",".",".",12,".",".",".","."],[".",".",".",".",".",".",".","."],[".",".",".",".",".",".",".","."],[".",".",".",".",".",".",".","."]],[[".",".",".",".",".",".",".","."],[".",".",".",".",".",".",".","."],[7,"b",8,"b",7,5,".","."],[".",".",".",".",".",".",7,"v"],[".",".",".",".",".",".",".","."],[".",".",".",".",".",".",".","."]],[[".",".",".","."],[".",".",".","b"],[".",".",".","."],[5,".",".","."],[".",7,7,"."],[".",".",".","."]]],"numberofstrings":6,"notes":["E","B","G","D","A","E","B"],"capo":0,"stringnotes":["E4","B3","G3","D3","A2","E2"],"comments":["Stave 1:","Stave 2:","Stave 3:","Stave 4:","Stave 5:","Stave 6:","Stave 7:","Stave 8:","Stave 9:","Stave 10:","Stave 11:","Stave 12:"],"timing":[["W","W","W","W","W","W",null,"W"],["W","W","W","W","W","W",null,"W","W"],["W",null,"W",null,"W","W","W"],["W",null,"W","W","W","W",null,"W","W"],["W",null,"W","W",null,"W","W","W","W",null,"W","W","W","W"],["W",null,"W","W","W","W",null,"W","W","W"],["W","W",null,"W","W","W"],["W",null,"W","W","W",null,"W","W"],["W","W","W",null,"W","W","W","W"],["W",null,"W","W","W","W","W"],["W",null,"W",null,"W","W","W"],["W","W","W","W"]],"timingvisible":false,"tabcounter":3,"stave":3,"totalstaves":12,"instrument":"6guitar","selectedtuning":"6_standard","version":"13"}

Member for

4 months 2 weeks
Submitted by Pebuit on Wed, 2020-09-02 01:39