Sound will begin in 5 seconds

Nash's Theme

01234567891011121314151617181920212223
E
B
G
D
A
E
B
0 1 2 3 4 5 6 7 8 9 10 11 12 13 14 15 16 17 18 19 20 21 22 23
Song Science #1: How Pros Use 6 Chords to Write Hit Songs
(/) Slide Up  (\) Slide Down  (h) Hammer On  (p) Pull Off  (b) Bend (r) Release (v) Vibrato

Stave 1:

E|--------------------------------------------------------------------------------
B|--------------------------------------------------------------------------------
G|------------7------------------------------------------7------------9--12--11v--
D|--7--9--10-----10--9--7----------------------7--9--10-----10--9--7--------------
A|-------------------------7--10--9v----------------------------------------------
E|--------------------------------------------------------------------------------

Stave 2:

E|------------------------------------------------------------------------
B|--12--13--15-----15--13--12--10--12---------------------10--13--12--10--
G|-------------------------------------12v--------10--12------------------
D|------------------------------------------------------------------------
A|------------------------------------------------------------------------
E|------------------------------------------------------------------------

Stave 3:

E|------------------------------------------
B|------10--12--15--13--12--10--12--13------
G|--12----------------------------------14--
D|------------------------------------------
A|------------------------------------------
E|------------------------------------------

Stave 4:

E|--------------------------------------------------------------------------------------------------------
B|--------------------------------------------------------------------------------------------------------
G|--------------------------------------------------------------------------------------------------------
D|--9--10--12--------12--14--15--17-------------15--14----------------------------------------------------
A|-----------------------------------17--14-------------17--15--14--15--14--17--15--14------17p15p14v-----
E|--------------------------------------------------------------------------------------15----------------

Stave 5:

E|--
B|--
G|--
D|--
A|--
E|--

http://www.guitartabcreator.com
Guitar Tab Creator is intended to store guitar tab created through the tool. It currently does not support in-line text editing. Any text you place in here will be lost. If you need to comment on your tab, please use the "Tab Notes" section located below.