Sound will begin in 5 seconds

Lost in Thought All Alone

01234567891011121314151617181920212223
E
B
G
D
A
E
B
0 1 2 3 4 5 6 7 8 9 10 11 12 13 14 15 16 17 18 19 20 21 22 23
Song Science #1: How Pros Use 6 Chords to Write Hit Songs
(/) Slide Up  (\) Slide Down  (h) Hammer On  (p) Pull Off  (b) Bend (r) Release (v) Vibrato

Stave 1:

E|-------------------------------------------------------------------------------------
B|-----------5v--------------5v--------------5v--------------5v--------------5v--------
G|--------8---------------8---------------8---------------8---------------8------------
D|-----6---------------6---------------6---------------6---------------6---------------
A|--4---------------4---------------4---------------4---------------4------------------
E|-------------------------------------------------------------------------------------

Stave 2:

E|----------10-------------10-----------------------------5----------------------------
B|--12--10------12-----10------12-----10--8--7--5v-----3-----5-----3--3--5/9--7--9-----
G|-------------------------------------------------------------------------------------
D|-------------------------------------------------------------------------------------
A|-------------------------------------------------------------------------------------
E|-------------------------------------------------------------------------------------

Stave 3:

E|----------10-------------10-----------------------------5-----------7---------------
B|--12--10------12-----10------12-----10--8--7--5v-----3-----5-----3-----5v-----------
G|------------------------------------------------------------------------------------
D|------------------------------------------------------------------------------------
A|------------------------------------------------------------------------------------
E|------------------------------------------------------------------------------------

Stave 4:

E|-----------------------------------------------------------------------------------
B|--9--14--12----------9--11--12--11----------9--11--12--11--9--7--9-----------------
G|-------------13v--------------------11v-----------------------------8-----6--8--6--
D|-----------------------------------------------------------------------------------
A|-----------------------------------------------------------------------------------
E|-----------------------------------------------------------------------------------

Stave 5:

E|-----------------------------------------------------------------------------------
B|-------------------------------------------9--9------9-----------------------------
G|--6--6--8--6--6v-----6--6--8--6--6v--------------11--------------------------------
D|-----------------------------------------------------------------------------------
A|-----------------------------------------------------------------------------------
E|-----------------------------------------------------------------------------------

http://www.guitartabcreator.com
Guitar Tab Creator is intended to store guitar tab created through the tool. It currently does not support in-line text editing. Any text you place in here will be lost. If you need to comment on your tab, please use the "Tab Notes" section located below.