Sound will begin in 5 seconds

Endless Battlefield ~ Sword of Mana

01234567891011121314151617181920212223
E
B
G
D
A
E
B
0 1 2 3 4 5 6 7 8 9 10 11 12 13 14 15 16 17 18 19 20 21 22 23
Song Science #1: How Pros Use 6 Chords to Write Hit Songs
(/) Slide Up  (\) Slide Down  (h) Hammer On  (p) Pull Off  (b) Bend (r) Release (v) Vibrato

Stave 1:

E|------------------12v-----------------------------------------------
B|--------------13----------------15--13--12---------12--13--12-------
G|----------14-----------------------------------12--------------14v--
D|------14------------------------------------------------------------
A|--12----------------------------------------------------------------
E|--------------------------------------------------------------------

Stave 2:

E|------------------12v----------------------------12--15--14--13--12--16v--
B|--------------13-------------15--13--12--13--15---------------------------
G|----------14--------------------------------------------------------------
D|------14------------------------------------------------------------------
A|--12----------------------------------------------------------------------
E|--------------------------------------------------------------------------

Stave 3:

E|--17--15--------------------------17--15--12--13--14--15-------
B|----------18--17--15v-----17--18--------------------------13v--
G|---------------------------------------------------------------
D|---------------------------------------------------------------
A|---------------------------------------------------------------
E|---------------------------------------------------------------

Stave 4:

E|----------------------------------------------------------
B|--15--13--12---------13--12-------------------------------
G|--------------14-------------14--12--16--15--14--12--14v--
D|----------------------------------------------------------
A|----------------------------------------------------------
E|----------------------------------------------------------

Stave 5:

E|-----------------12------15--12-----------------------15-------
B|------12--13---------15----------15--13-----15p13p12------15v--
G|--14-----------------------------------------------------------
D|---------------------------------------------------------------
A|---------------------------------------------------------------
E|---------------------------------------------------------------

Stave 6:

E|-------------------------------------------------12------12--14--12v--
B|--12h13h15p13p12---------12--13--12------13--15------16---------------
G|---------------------14--------------12-------------------------------
D|----------------------------------------------------------------------
A|----------------------------------------------------------------------
E|----------------------------------------------------------------------

http://www.guitartabcreator.com
Guitar Tab Creator is intended to store guitar tab created through the tool. It currently does not support in-line text editing. Any text you place in here will be lost. If you need to comment on your tab, please use the "Tab Notes" section located below.