Sound will begin in 5 seconds

Conquest

01234567891011121314151617181920212223
E
B
G
D
A
E
B
0 1 2 3 4 5 6 7 8 9 10 11 12 13 14 15 16 17 18 19 20 21 22 23
Song Science #1: How Pros Use 6 Chords to Write Hit Songs
(/) Slide Up  (\) Slide Down  (h) Hammer On  (p) Pull Off  (b) Bend (r) Release (v) Vibrato

Stave 1:

E|-------------------------------------------------------------
B|-------------------------------------------------------------
G|--12--10--8--8h10h12--10--8--8h10h12--10--8--8h10h12--10--8--
D|-------------------------------------------------------------
A|-------------------------------------------------------------
E|-------------------------------------------------------------

Stave 2:

E|----------------------------------------------------------------------------------------------------------
B|----------------------------------------------------------------------------------------------------------
G|-------------------------------------------12---------------------------------------------------------15--
D|------12--13--15--10h12--------12--13--15--------15p13p12--------12--13--15--10h12--------12--13--15------
A|--10-----------------------10--------------------------------10-----------------------10------------------
E|----------------------------------------------------------------------------------------------------------

Stave 3:

E|-----------------------------------------------------------------
B|--------------18--15----16--18----------------16v----------------
G|--13--15--17--------------------15v----17v---------13----15--17--
D|-----------------------------------------------------------------
A|-----------------------------------------------------------------
E|-----------------------------------------------------------------

Stave 4:

E|-----------------------------------------------------------18v--16--15----------------------
B|------16--20--20-------------------18--------------16--20-------------------15--16--18--16--
G|--15--------------17--17v--19--20------20--19--15-----------------------17------------------
D|--------------------------------------------------------------------------------------------
A|--------------------------------------------------------------------------------------------
E|--------------------------------------------------------------------------------------------

Stave 5:

E|--------------------------------------------------------------14--12--11----------------------
B|------12--16--16v---------------------14--------------12--16------------------11--12--14--12--
G|--11---------------13--13v--15--16--------16--15--11----------------------13------------------
D|----------------------------------------------------------------------------------------------
A|----------------------------------------------------------------------------------------------
E|----------------------------------------------------------------------------------------------

http://www.guitartabcreator.com
Guitar Tab Creator is intended to store guitar tab created through the tool. It currently does not support in-line text editing. Any text you place in here will be lost. If you need to comment on your tab, please use the "Tab Notes" section located below.