Mermaid By Sade (EASY LEARN)

01234567891011121314151617181920212223
E
B
G
D
A
E
B
0 1 2 3 4 5 6 7 8 9 10 11 12 13 14 15 16 17 18 19 20 21 22 23
(/) Slide Up  (\) Slide Down  (h) Hammer On  (p) Pull Off  (b) Bend (r) Release (v) Vibrato

Stave 1:

E|--------------------------------------------------------------------------------------------------------------------------
B|--------------------------------------------------------------------------------------------------------------------------
G|-----------1-----------------1--------------------------------------------1--------------1--------------------------------
D|--------2--------2--------2-----2--------2--------------2--------------2-----2--------2-----2-----------2-----------2-----
A|-----2-----------------2--------------0-----0--------0-----0--------2--------------2-----------------0-----0-----0-----0--
E|--0-----------------0--------------0--------------0--------------0--------------0-----------------0-----------0-----------

Stave 2:

E|----------------------------------------------------
B|----------------------------------------------------
G|--------------5-----------5----------7-----------9--
D|--------5--------------5-----5/---7--------9--------
A|-----3-----3--------3----------5--------7-----7-----
E|----------------------------------------------------

							http://www.guitartabcreator.com
Chords

Tab Notes
You can Hammer on (Open string t immediate tab number) an open string right before the 2 on Stave 1 for the D String. Note 2 : Remember Tabs are done by telling you what fret number you should be on. Fret 1 to Fret 2 to Fret 3 on an e looks like this e|--1-2-3 A Rest Looks like this e|--1-2-3---4|
Instruments
{"strings":[[[".",".",".",".","_",".",".",".",".",".",".",".",".",".",".","_",".",".",".",".","_",".",".",".",".",".",".",".",".",".",".","_",".",".",".",".",".",".",".","."],[".",".",".",".","_",".",".",".",".",".",".",".",".",".",".","_",".",".",".",".","_",".",".",".",".",".",".",".",".",".",".","_",".",".",".",".",".",".",".","."],[".",".",".",1,"_",".",".",".",".",1,".",".",".",".",".","_",".",".",".",".","_",".",".",".",1,".",".",".",".",1,".","_",".",".",".",".",".",".",".","."],[".",".",2,".","_",2,".",".",2,".",2,".",".",2,".","_",".",".",2,".","_",".",".",2,".",2,".",".",2,".",2,"_",".",".",2,".",".",".",2,"."],[".",2,".",".","_",".",".",2,".",".",".",".",0,".",0,"_",".",0,".",0,"_",".",2,".",".",".",".",2,".",".",".","_",".",0,".",0,".",0,".",0],[0,".",".",".","_",".",0,".",".",".",".",0,".",".",".","_",0,".",".",".","_",0,".",".",".",".",0,".",".",".",".","_",0,".",".",".",0,".",".","."]],[["_",".",".",".",".","_",".",".",".",".",".",".",".",".",".",".",".","."],["_",".",".",".",".","_",".",".",".",".",".",".",".",".",".",".",".","."],["_",".",".",".",5,"_",".",".",5,".",".",".",".",7,".",".",".",9],["_",".",5,".",".","_",".",5,".",5,"/",".",7,".",".",9,".","."],["_",3,".",3,".","_",3,".",".",".",".",5,".",".",7,".",7,"."],["_",".",".",".",".","_",".",".",".",".",".",".",".",".",".",".",".","."]]],"numberofstrings":6,"notes":["E","B","G","D","A","E","B"],"capo":0,"stringnotes":["E4","B3","G3","D3","A2","E2"],"comments":["Stave 1:","Stave 2:","Stave 3:"],"timing":[[null,null,null,null,null,null,"W","W","W","W","W","W","W","W","W",null,"W","W","W","W","W","W","W","W","W","W","W","W","W","W","W",null,"W","W","W","W","W","W","W","W"],[null,"W","W","W","W",null,"W","W","W","W",null,"W","W","W","W","W","W","W"],[]],"timingvisible":false,"tabcounter":0,"totalstaves":2,"instrument":"6guitar","selectedtuning":"6_standard","version":"13"}

Member for

1 week
About Me
I'm a listen by ear musician,I like listening to song and figuring out how to play them, its a good challenge and excercise!
Submitted by Pdawg221 on Tue, 2021-01-12 23:52