Sound will begin in 5 seconds

Glory of Love- Peter Cetera Cover by David Locke

01234567891011121314151617181920212223
E
B
G
D
A
E
B
0 1 2 3 4 5 6 7 8 9 10 11 12 13 14 15 16 17 18 19 20 21 22 23
Song Science #1: How Pros Use 6 Chords to Write Hit Songs
(/) Slide Up  (\) Slide Down  (h) Hammer On  (p) Pull Off  (b) Bend (r) Release (v) Vibrato

Stave 1:

E|-----------------------------------------|--
B|--------5---------6--5h6-----------5-----|--
G|--5--7-----5h7p5----------7-----5-----7--|--
D|-----------------------------8-----------|--
A|-----------------------------------------|--
E|-----------------------------------------|--

Stave 2:

E|--------------------------------------------------------------|--
B|-------------------------5--5--6--6--5--8--6p5----------------|--
G|--5--5--7--7/9--9--7--7-------------------------7--5--7/9--7--|--
D|--------------------------------------------------------------|--
A|--------------------------------------------------------------|--
E|--------------------------------------------------------------|--

Stave 3:

E|------------------------------------------------|--
B|-------5h8-----6--5-----------3--6--4--3--------|--
G|--5h7-------------------3--5--------------3--5--|--
D|------------------------------------------------|--
A|------------------------------------------------|--
E|------------------------------------------------|--

Stave 4:

E|-----------------------------------------------------------
B|----------------------5--5--6--6-----8--6p5----------------
G|--5--5--7--7/9--7--7--------------7----------7--5--7/9--7--
D|-----------------------------------------------------------
A|-----------------------------------------------------------
E|-----------------------------------------------------------

Stave 5:

E|-------------------------------------------|-------------5----------------------|-------------5-------------------
B|--2/5--6--8--8/10--6--8/10--8--5--8--6-----|--2/5--6--8-----8--6--5--6--6p5-----|--2/5--6--8-----8--5h6--8--------
G|----------------------------------------7--|---------------------------------7--|---------------------------5--7--
D|-------------------------------------------|------------------------------------|---------------------------------
A|-------------------------------------------|------------------------------------|---------------------------------
E|-------------------------------------------|------------------------------------|---------------------------------

http://www.guitartabcreator.com
Guitar Tab Creator is intended to store guitar tab created through the tool. It currently does not support in-line text editing. Any text you place in here will be lost. If you need to comment on your tab, please use the "Tab Notes" section located below.