Sound will begin in 5 seconds

keep moving forward

Chords
01234567891011121314151617181920212223
E
B
G
D
A
E
B
0 1 2 3 4 5 6 7 8 9 10 11 12 13 14 15 16 17 18 19 20 21 22 23
Song Science #1: How Pros Use 6 Chords to Write Hit Songs
(/) Slide Up  (\) Slide Down  (h) Hammer On  (p) Pull Off  (b) Bend (r) Release (v) Vibrato

Stave 1:

E|-----------------------------------------------------------------------------------------------------
B|-----------------------------------------------------------------------------------------------------
G|-----------------------------------------------------------------------------------------------------
D|-----9-----9-----9-----9-----4-----4-----4-----3-----2-----2-----2-----2-----4-----4-----4--------4--
A|-----9-----9-----9-----9-----4-----4-----4-----3-----2-----2-----2-----2-----4-----4-----4--------4--
E|--9-----9-----9-----9-----4-----4-----4-----3-----2-----2-----2-----2-----4-----4-----4--------4-----

Stave 2:

E|--9------7--------5--------4-----5--------
B|--9------7--------5--------4-----5--------
G|--9------7--8-----5--6-----4-----5--6-----
D|--9------7-----8--5-----7--4-----5-----7--
A|--9--11--7-----8--5-----7--4--5--5-----7--
E|--9------7--------5--------4-----5--------

Stave 3:

E|--------------------------
B|--------------------------
G|--9--9--------------------
D|--9--9--9--9--6--6--7--7--
A|--7--7--9--9--6--6--7--7--
E|--------7--7--4--4--5--5--

http://www.guitartabcreator.com
Guitar Tab Creator is intended to store guitar tab created through the tool. It currently does not support in-line text editing. Any text you place in here will be lost. If you need to comment on your tab, please use the "Tab Notes" section located below.