Sound will begin in 5 seconds

Queen - Love of My Life

01234567891011121314151617181920212223
E
B
G
D
A
E
B
0 1 2 3 4 5 6 7 8 9 10 11 12 13 14 15 16 17 18 19 20 21 22 23
(/) Slide Up  (\) Slide Down  (h) Hammer On  (p) Pull Off  (b) Bend (r) Release (v) Vibrato

Stave 1:

E|-------0-------0-----------------------0-------0-----------------
B|-1-0-1---1-0-1---3-3-3-1-0-1-3-0-1-0-1---1-0-1-----1-3-1-------1-
G|-------------------------------------------------2-------2-0-2---
D|-----------------------------------------------------------------
A|-----------------------------------------------------------------
E|-----------------------------------------------------------------

Stave 2:

E|-------3---------1-0-1-5-----3-3-1-0-----5-3-5-5-1-0-1-1---0-0-1-0-----------
B|-1-0-1---0-0-------------------------3-1-----------------3---------3-3-1-----
G|-------------2-2---------2-0---------------------------------------------2-0-
D|-----------------------------------------------------------------------------
A|-----------------------------------------------------------------------------
E|-----------------------------------------------------------------------------

Stave 3:

E|-----1-5-3-------1-1-10-8-6-5---1-3-1---1-3-1-------1-------3-------1-0-1-5-
B|---1-------3-1-3--------------3-------1-------0-1-3---1-0-1---0-0-----------
G|------------------------------------------------------------------2---------
D|-3--------------------------------------------------------------------------
A|----------------------------------------------------------------------------
E|----------------------------------------------------------------------------

Stave 4:

E|-----3-3-1-0-----5-3-5-5-1-0-1-1---0-0-1-0---------------1-5-3-------1-1-
B|-------------3-1-----------------3---------3-3-1-------1-------3-1-3-----
G|-2-0---------------------------------------------2-0---------------------
D|-----------------------------------------------------3-------------------
A|-------------------------------------------------------------------------
E|-------------------------------------------------------------------------

Stave 5:

E|-1-1-1-1-1-1-0-0-5-0-----------1-------1-1-1-1-5-0-0-1-0-----0-----------
B|---------------------1-----1-3---------------------------3-1---3-1-4-3-1-
G|-----------------------2-3---------2-2-----------------------------------
D|---------------------------------3---------------------------------------
A|-------------------------------------------------------------------------
E|-------------------------------------------------------------------------

Stave 6:

E|---3-3-3-3-5-6-5-
B|-----------------
G|-3---------------
D|-----------------
A|-----------------
E|-----------------

http://www.guitartabcreator.com
Guitar Tab Creator is intended to store guitar tab created through the tool. It currently does not support in-line text editing. Any text you place in here will be lost. If you need to comment on your tab, please use the "Tab Notes" section located below.