All Your Love

Chords

01234567891011121314151617181920212223
E
B
G
D
A
E
B
0 1 2 3 4 5 6 7 8 9 10 11 12 13 14 15 16 17 18 19 20 21 22 23
(/) Slide Up  (\) Slide Down  (h) Hammer On  (p) Pull Off  (b) Bend (r) Release (v) Vibrato

Intro Lead

E|-----5/--------------------------5/--------------------------5/-----------------------
B|-----5---------------------------5---------------------------5------------------------
G|----------7br9p5-----5b---------------7br9p5-----5b5--------------7br9p5-----5h7v-----
D|------------------7-------7v------------------7-------7v------------------7-----------
A|--------------------------------------------------------------------------------------
E|--------------------------------------------------------------------------------------

Intro Lead

E|--5/-----------------------------5/--------------------------------5b---
B|--5------------------------------5---------------------------------5----
G|-------7br9p5-----5b------------------7b9b9b8b8r7-----b8r7--5-----------
D|---------------7-------7v--------------------------------------7v-------
A|------------------------------------------------------------------------
E|------------------------------------------------------------------------

Intro Rhythm

E|------------------------------------------------------------------------------------------------------------------
B|------------------------------------------------------------------------------------------------------------------
G|------------------------------------5---------------------------------------------5-------------------5--5--5--7--
D|----------5--5--5--7-------------5-----5--7-------------5--5--5--7-------------5-----5--7--------5h7--------------
A|-----5h7--------------------5h7--------------------5h7--------------------5h7-----------------5-------------------
E|--5----------------------5----------------------5----------------------5------------------------------------------

Intro Rhythm

E|------------------------------------------------------------------------------------------------------------------
B|-------------5-------------------------------------------------------------------------------------------5--------
G|----------5-----5--7---------------------------------------5-------------------7--7--7--9-------------5-----5--7--
D|-----5h7-------------------------5--5--5--7-------------5-----5--7--------7h9--------------------5h7--------------
A|--5-------------------------5h7--------------------5h7-----------------7----------------------5-------------------
E|-------------------------5----------------------5-----------------------------------------------------------------

Intro Rhythm

E|----------------------------
B|----------------------------
G|----------------------------
D|----------5--5--5--7--------
A|-----5h7--------------------
E|--5----------------------5--

Lead

E|-------------8--10--10p8--10p8--10p8--10p8--10p8b9-------------------------------------------------------
B|--8/10v--10--------------------------------------------8/10----------------------------------------------
G|-------------------------------------------------------------9\7--7\5v-----7\5--7--5--7/9--7/9v-----7p5--
D|---------------------------------------------------------------------------------------------------------
A|---------------------------------------------------------------------------------------------------------
E|---------------------------------------------------------------------------------------------------------

Lead

E|------------------------------
B|------------------------------
G|--5h7p5v----------------------
D|----------7v--7p5h7--5h7p5h7--
A|------------------------------
E|------------------------------

Solo

E|--------------12--------------12----------------------12--------------12----------------------12----------5--
B|------13--------------13----------------------13--------------13----------------------13--------------13--6--
G|--14------14------14------14------14v-----14------14------14------14------14v-----14------14------14------7--
D|-------------------------------------------------------------------------------------------------------------
A|-------------------------------------------------------------------------------------------------------------
E|-------------------------------------------------------------------------------------------------------------

Solo

E|-------------12--------------12----------------------12----------7--7--5-------------------------------------8b9--
B|-----13--------------13----------------------13--------------13--8--8--6---------------------10--10--10--10-------
G|---------14------14------14------14v-----14------14------14------9--9--7--7br9p5b5--------------------------------
D|------------------------------------------------------------------------------------7--5--7-----------------------
A|------------------------------------------------------------------------------------------------------------------
E|------------------------------------------------------------------------------------------------------------------

Solo

E|-----------------------------------------10b12p8--10b12--8b-------10b12--8b8-------8b8--
B|--10b13v--b13b13--8--8-----8v--10b13---------------------8----10--------------10v-------
G|------------------------9---------------------------------------------------------------
D|----------------------------------------------------------------------------------------
A|----------------------------------------------------------------------------------------
E|----------------------------------------------------------------------------------------

Solo

E|--------5---------------5/--------------8--10--10p8------8b8-----20b22r21v--20p17--17v------------17----------------
B|--8b10-----8p5--5b5-----5----10--9--10---------------10------------------------------------20b22------20p17---------
G|-------------------------------------------------------------------------------------------------------------19b21--
D|--------------------------------------------------------------------------------------------------------------------
A|---------------------7----------------------------------------------------------------------------------------------
E|--------------------------------------------------------------------------------------------------------------------

Solo

E|---------------------------
B|---------17--17------------
G|--17h19----------17b17-----
D|---------------------------
A|---------------------------
E|------------------------17/

							http://www.guitartabcreator.com
genre
Instruments
{"strings":[[[".",5,"/","_",".",".",".",".",".",".",".",".",".",".",".",".","_",5,"/","_",".",".",".",".",".",".",".",".",".",".",".",".","_",5,"/","_",".",".",".",".",".",".",".",".",".",".",".","_"],[".",5,".","_",".",".",".",".",".",".",".",".",".",".",".",".","_",5,".","_",".",".",".",".",".",".",".",".",".",".",".",".","_",5,".","_",".",".",".",".",".",".",".",".",".",".",".","_"],[".",".",".","_",7,"b","r",9,"p",5,".",5,"b",".",".",".","_",".",".","_",7,"b","r",9,"p",5,".",5,"b",5,".",".","_",".",".","_",7,"b","r",9,"p",5,".",5,"h",7,"v","_"],[".",".",".","_",".",".",".",".",".",".",7,".",".",".",7,"v","_",".",".","_",".",".",".",".",".",".",7,".",".",".",7,"v","_",".",".","_",".",".",".",".",".",".",7,".",".",".",".","_"],[".",".",".","_",".",".",".",".",".",".",".",".",".",".",".",".","_",".",".","_",".",".",".",".",".",".",".",".",".",".",".",".","_",".",".","_",".",".",".",".",".",".",".",".",".",".",".","_"],[".",".",".","_",".",".",".",".",".",".",".",".",".",".",".",".","_",".",".","_",".",".",".",".",".",".",".",".",".",".",".",".","_",".",".","_",".",".",".",".",".",".",".",".",".",".",".","_"]],[[5,"/","_",".",".",".",".",".",".",".",".",".",".",".",".",".","_",5,"/","_",".",".",".",".",".",".",".",".",".",".",".","_",".",".",".",".",".",".",".",5,"b","."],[5,".","_",".",".",".",".",".",".",".",".",".",".",".",".",".","_",5,".","_",".",".",".",".",".",".",".",".",".",".",".","_",".",".",".",".",".",".",".",5,".","."],[".",".","_",7,"b","r",9,"p",5,".",5,"b",".",".",".",".","_",".",".","_",7,"b",9,"b",9,"b",8,"b",8,"r",7,"_","b",8,"r",7,5,".",".",".",".","."],[".",".","_",".",".",".",".",".",".",7,".",".",".",7,"v",".","_",".",".","_",".",".",".",".",".",".",".",".",".",".",".","_",".",".",".",".",".",7,"v",".",".","."],[".",".","_",".",".",".",".",".",".",".",".",".",".",".",".",".","_",".",".","_",".",".",".",".",".",".",".",".",".",".",".","_",".",".",".",".",".",".",".",".",".","."],[".",".","_",".",".",".",".",".",".",".",".",".",".",".",".",".","_",".",".","_",".",".",".",".",".",".",".",".",".",".",".","_",".",".",".",".",".",".",".",".",".","."]],[[".",".",".",".",".",".",".",".","_",".",".",".",".",".",".",".",".","_",".",".",".",".",".",".",".",".","_",".",".",".",".",".",".",".",".","_",".",".",".",".",".",".",".","."],[".",".",".",".",".",".",".",".","_",".",".",".",".",".",".",".",".","_",".",".",".",".",".",".",".",".","_",".",".",".",".",".",".",".",".","_",".",".",".",".",".",".",".","."],[".",".",".",".",".",".",".",".","_",".",".",".",".",".",5,".",".","_",".",".",".",".",".",".",".",".","_",".",".",".",".",".",5,".",".","_",".",".",".",".",5,5,5,7],[".",".",".",".",5,5,5,7,"_",".",".",".",".",5,".",5,7,"_",".",".",".",".",5,5,5,7,"_",".",".",".",".",5,".",5,7,"_",".",5,"h",7,".",".",".","."],[".",5,"h",7,".",".",".",".","_",".",5,"h",7,".",".",".",".","_",".",5,"h",7,".",".",".",".","_",".",5,"h",7,".",".",".",".","_",5,".",".",".",".",".",".","."],[5,".",".",".",".",".",".",".","_",5,".",".",".",".",".",".",".","_",5,".",".",".",".",".",".",".","_",5,".",".",".",".",".",".",".","_",".",".",".",".",".",".",".","."]],[[".",".",".",".",".",".",".",".","_",".",".",".",".",".",".",".",".","_",".",".",".",".",".",".",".",".","_",".",".",".",".",".",".",".",".","_",".",".",".",".",".",".",".","."],[".",".",".",".",".",5,".",".","_",".",".",".",".",".",".",".",".","_",".",".",".",".",".",".",".",".","_",".",".",".",".",".",".",".",".","_",".",".",".",".",".",5,".","."],[".",".",".",".",5,".",5,7,"_",".",".",".",".",".",".",".",".","_",".",".",".",".",".",5,".",".","_",".",".",".",".",7,7,7,9,"_",".",".",".",".",5,".",5,7],[".",5,"h",7,".",".",".",".","_",".",".",".",".",5,5,5,7,"_",".",".",".",".",5,".",5,7,"_",".",7,"h",9,".",".",".",".","_",".",5,"h",7,".",".",".","."],[5,".",".",".",".",".",".",".","_",".",5,"h",7,".",".",".",".","_",".",5,"h",7,".",".",".",".","_",7,".",".",".",".",".",".",".","_",5,".",".",".",".",".",".","."],[".",".",".",".",".",".",".",".","_",5,".",".",".",".",".",".",".","_",5,".",".",".",".",".",".",".","_",".",".",".",".",".",".",".",".","_",".",".",".",".",".",".",".","."]],[[".",".",".",".",".",".",".",".","_","."],[".",".",".",".",".",".",".",".","_","."],[".",".",".",".",".",".",".",".","_","."],[".",".",".",".",5,5,5,7,"_","."],[".",5,"h",7,".",".",".",".","_","."],[5,".",".",".",".",".",".",".","_",5]],[[".",".",".",".",".",8,10,10,"p",8,10,"p",8,10,"p",8,10,"p",8,10,"p",8,"b",9,"_",".",".",".",".",".",".",".",".",".",".",".",".",".",".",".",".",".",".",".",".",".",".",".",".",".",".","."],[8,"/",10,"v",10,".",".",".",".",".",".",".",".",".",".",".",".",".",".",".",".",".",".",".","_",8,"/",10,".",".",".",".",".",".",".",".",".",".",".",".",".",".",".",".",".",".",".",".",".",".",".","."],[".",".",".",".",".",".",".",".",".",".",".",".",".",".",".",".",".",".",".",".",".",".",".",".","_",".",".",".",9,"\\",7,7,"\\",5,"v",".",7,"\\",5,7,5,7,"/",9,7,"/",9,"v",".",7,"p",5],[".",".",".",".",".",".",".",".",".",".",".",".",".",".",".",".",".",".",".",".",".",".",".",".","_",".",".",".",".",".",".",".",".",".",".",".",".",".",".",".",".",".",".",".",".",".",".",".",".",".",".","."],[".",".",".",".",".",".",".",".",".",".",".",".",".",".",".",".",".",".",".",".",".",".",".",".","_",".",".",".",".",".",".",".",".",".",".",".",".",".",".",".",".",".",".",".",".",".",".",".",".",".",".","."],[".",".",".",".",".",".",".",".",".",".",".",".",".",".",".",".",".",".",".",".",".",".",".",".","_",".",".",".",".",".",".",".",".",".",".",".",".",".",".",".",".",".",".",".",".",".",".",".",".",".",".","."]],[[".",".",".",".",".",".",".",".",".",".",".",".",".",".",".",".",".",".",".","."],[".",".",".",".",".",".",".",".",".",".",".",".",".",".",".",".",".",".",".","."],[5,"h",7,"p",5,"v",".",".",".",".",".",".",".",".",".",".",".",".",".","."],[".",".",".",".",".",".",7,"v",7,"p",5,"h",7,5,"h",7,"p",5,"h",7],[".",".",".",".",".",".",".",".",".",".",".",".",".",".",".",".",".",".",".","."],[".",".",".",".",".",".",".",".",".",".",".",".",".",".",".",".",".",".",".","."]],[[".",".",".",12,".",".",".",12,".",".","_",".",".",".",12,".",".",".",12,".",".","_",".",".",".",12,".",".",5],[".",13,".",".",".",13,".",".",".",".","_",".",13,".",".",".",13,".",".",".",".","_",".",13,".",".",".",13,6],[14,".",14,".",14,".",14,".",14,"v","_",14,".",14,".",14,".",14,".",14,"v","_",14,".",14,".",14,".",7],[".",".",".",".",".",".",".",".",".",".","_",".",".",".",".",".",".",".",".",".",".","_",".",".",".",".",".",".","."],[".",".",".",".",".",".",".",".",".",".","_",".",".",".",".",".",".",".",".",".",".","_",".",".",".",".",".",".","."],[".",".",".",".",".",".",".",".",".",".","_",".",".",".",".",".",".",".",".",".",".","_",".",".",".",".",".",".","."]],[[".",".",".",12,".",".",".",12,".",".","_",".",".",".",12,".",".",7,7,5,".",".",".",".",".",".",".",".",".",".",".",".",".",".",".",8,"b",9],[".",13,".",".",".",13,".",".",".",".","_",".",13,".",".",".",13,8,8,6,".",".",".",".",".",".",".",".",".",".",".",10,10,10,10,".",".","."],[".",".",14,".",14,".",14,".",14,"v","_",14,".",14,".",14,".",9,9,7,7,"b","r",9,"p",5,"b",5,".",".",".",".",".",".",".",".",".","."],[".",".",".",".",".",".",".",".",".",".","_",".",".",".",".",".",".",".",".",".",".",".",".",".",".",".",".",".",7,5,7,".",".",".",".",".",".","."],[".",".",".",".",".",".",".",".",".",".","_",".",".",".",".",".",".",".",".",".",".",".",".",".",".",".",".",".",".",".",".",".",".",".",".",".",".","."],[".",".",".",".",".",".",".",".",".",".","_",".",".",".",".",".",".",".",".",".",".",".",".",".",".",".",".",".",".",".",".",".",".",".",".",".",".","."]],[[".",".",".",".",".",".",".",".",".",".",".",".",".",".",".",".","_",10,"b",12,"p",8,10,"b",12,8,"b","_",".",10,"b",12,8,"b",8,".",".",8,"b",8],[10,"b",13,"v","b",13,"b",13,8,8,".",8,"v",10,"b",13,"_",".",".",".",".",".",".",".",".",8,".","_",10,".",".",".",".",".",".",10,"v",".",".","."],[".",".",".",".",".",".",".",".",".",".",9,".",".",".",".",".","_",".",".",".",".",".",".",".",".",".",".","_",".",".",".",".",".",".",".",".",".",".",".","."],[".",".",".",".",".",".",".",".",".",".",".",".",".",".",".",".","_",".",".",".",".",".",".",".",".",".",".","_",".",".",".",".",".",".",".",".",".",".",".","."],[".",".",".",".",".",".",".",".",".",".",".",".",".",".",".",".","_",".",".",".",".",".",".",".",".",".",".","_",".",".",".",".",".",".",".",".",".",".",".","."],[".",".",".",".",".",".",".",".",".",".",".",".",".",".",".",".","_",".",".",".",".",".",".",".",".",".",".","_",".",".",".",".",".",".",".",".",".",".",".","."]],[[".",".",".",5,".",".",".",".",".",".",".",5,"/","_",".",".",".",8,10,10,"p",8,".",8,"b",8,"_",20,"b",22,"r",21,"v",20,"p",17,17,"v","_",".",".",".",17,".",".",".",".",".","."],[8,"b",10,".",8,"p",5,5,"b",5,".",5,".","_",10,9,10,".",".",".",".",".",10,".",".",".","_",".",".",".",".",".",".",".",".",".",".",".","_",20,"b",22,".",20,"p",17,".",".","."],[".",".",".",".",".",".",".",".",".",".",".",".",".","_",".",".",".",".",".",".",".",".",".",".",".",".","_",".",".",".",".",".",".",".",".",".",".",".","_",".",".",".",".",".",".",".",19,"b",21],[".",".",".",".",".",".",".",".",".",".",".",".",".","_",".",".",".",".",".",".",".",".",".",".",".",".","_",".",".",".",".",".",".",".",".",".",".",".","_",".",".",".",".",".",".",".",".",".","."],[".",".",".",".",".",".",".",".",".",".",7,".",".","_",".",".",".",".",".",".",".",".",".",".",".",".","_",".",".",".",".",".",".",".",".",".",".",".","_",".",".",".",".",".",".",".",".",".","."],[".",".",".",".",".",".",".",".",".",".",".",".",".","_",".",".",".",".",".",".",".",".",".",".",".",".","_",".",".",".",".",".",".",".",".",".",".",".","_",".",".",".",".",".",".",".",".",".","."]],[[".",".",".",".",".",".",".",".",".","."],[".",".",".",17,17,".",".",".",".","."],[17,"h",19,".",".",17,"b",17,".","."],[".",".",".",".",".",".",".",".",".","."],[".",".",".",".",".",".",".",".",".","."],[".",".",".",".",".",".",".",".",17,"/"]]],"numberofstrings":6,"notes":["E","B","G","D","A","E","B"],"capo":0,"stringnotes":["E4","B3","G3","D3","A2","E2"],"comments":["Intro Lead","Intro Lead","Intro Rhythm","Intro Rhythm","Intro Rhythm","Lead","Lead","Solo","Solo","Solo","Solo","Solo"],"timing":[[null,"W",null,"W","W",null,"W","W","W","W","W","W",null,"W","W","W",null,null,"W","W","W","W","W","W","W","W","W","W","W","W","W","W","W",null,"W",null,"W","W",null,"W","W",null,"W","W","W",null,"W",null,null,"W"],["W",null,"W","W",null,"W","W",null,"W","W","W","W","W",null,null,"W",null,"W","W",null,"W","W","W",null,"W",null,"W",null,"W","W","W","W",null,"W","W","W",null,"W"],["W","W",null,"W","W","W","W","W","W","W","W",null,"W","W","W","W","W","W","W","W",null,"W","W","W","W","W",null,"W","W",null,"W","W","W","W","W","W","W","W","W","W","W","W","W","W",null,"W","W",null,"W","W","W"],["W","W",null,"W","W","W","W","W",null,"W","W",null,"W","W","W","W","W",null,"W","W",null,"W","W","W","W","W",null,"W","W",null,"W","W","W","W","W",null,"W","W",null,"W","W","W","W","W"],["W","W",null,"W","W","W","W","W",null,"W"],["W",null,"W",null,"W","W","W","W",null,"W","W",null,"W","W",null,"W","W",null,"W","W",null,"W",null,"W","W","W",null,"W","W",null,"W","W",null,"W",null,"W",null,"W","W","W","W",null,"W","W",null,"W",null,"W",null,"W","W"],["W",null,"W",null,"W",null,"W",null,"W","W","W","W","W","W",null,"W",null,"W",null,"W"],["W","W","W","W","W","W","W","W","W",null,null,"W","W","W","W","W","W","W","W","W",null,null,"W","W","W","W","W","W","W","W"],["W","W","W","W","W","W","W","W","W",null,"W","W","W","W","W","W","W","W","W","W","W",null,"W","W",null,"W","W","W","W","W","W","W","W","W","W","W","W","W","W"],["W","W","W","W","W","W","W","W","W","W","W","W",null,"W",null,"W",null,"W",null,"W","W","W","W",null,"W","W",null,"W","W","W",null,"W","W","W","W","W","W","W","W","W","W","W","W","W"],["W",null,"W","W","W",null,"W","W",null,"W","W","W",null,null,"W","W","W","W","W","W","W","W","W","W",null,"W",null,"W",null,"W","W","W",null,"W","W","W","W",null,null,"W",null,"W","W","W","W","W","W","W","W","W","W"],["W","W","W","W","W","W",null,"W","W"]],"timingvisible":false,"tabcounter":12,"stave":5,"totalstaves":12,"instrument":"6guitar","selectedtuning":"6_standard","version":"13"}

Member for

1 month 4 weeks
Submitted by pat354 on Thu, 2020-10-01 20:19