Sound will begin in 5 seconds

you won't be seeing me again

Chords
01234567891011121314151617181920212223
E
B
G
D
A
E
B
0 1 2 3 4 5 6 7 8 9 10 11 12 13 14 15 16 17 18 19 20 21 22 23
Song Science #1: How Pros Use 6 Chords to Write Hit Songs
(/) Slide Up  (\) Slide Down  (h) Hammer On  (p) Pull Off  (b) Bend (r) Release (v) Vibrato

Stave 1:

E|--------------------------------------------------
B|--------------------------------------------------
G|--------------------------------------------------
D|--4-----------4-----------4-----------4-----------
A|-----5-----------5-----------5-----------5--------
E|--------3-----------3--0--------0-----------0--0--

Stave 2:

E|--------------------------------------------------
B|--------------------------------------------------
G|--------------------------------------------------
D|-----2-----4--2-----------4-----4--5--4--0--------
A|--2-----2--------0--2--3-----3--------------------
E|--------------------------------------------------

Stave 3:

E|-----------------------------
B|-----------------------------
G|-----------------------------
D|--4-----4-----5-----4-----5--
A|--5-----5-----7-----3-----3--
E|--3-----0-----0--------------

Stave 4:

E|--------------------------------------------3--
B|--5--3--3--1--0-----1-----0-----1-----1--3--0--
G|--0--0--0--0--2-----2-----2-----2-----0--0--0--
D|--4--4--2--2--2-----2-----2-----2-----2--4--0--
A|--5--5--3--3--0-----0-----0-----0-----3--5--2--
E|--------------------------------------------3--

Stave 5:

E|-----------------------------------------
B|--1-----1-----3-----3-----5-----3-----5--
G|--0-----0-----0-----0-----0-----0-----0--
D|--2-----2-----2-----4-----4-----4-----4--
A|--3-----3-----3-----5-----5-----5-----5--
E|-----------------------------------------

Stave 6:

E|-----------------------------------------------
B|--5-----3-----5--3--0-----5-----3-----5--3--0--
G|--0-----0-----0--0--0-----0-----0-----0--0--0--
D|--4-----4-----4--4--2-----4-----4-----4--4--2--
A|--5-----5-----5--5--3-----5-----5-----5--5--3--
E|-----------------------------------------------

Stave 7:

E|---------------------------------------------------
B|--8-----8-----8-----8-----7-----8-----10-----7-----
G|-----0-----0-----0-----0-----0-----0------0-----0--
D|---------------------------------------------------
A|---------------------------------------------------
E|---------------------------------------------------

Stave 8:

E|--------------------------------------------------
B|--1-----1-----3-----1-----0-----0-----0-----0-----
G|-----0-----0-----0-----0-----0-----0-----0-----0--
D|--------------------------------------------------
A|--------------------------------------------------
E|--------------------------------------------------

Stave 9:

E|--------------------------------------------------------
B|--13-----13-----12-----12-----10-----10-----8-----8-----
G|------0------0------0------0------0------0-----0-----0--
D|--------------------------------------------------------
A|--------------------------------------------------------
E|--------------------------------------------------------

Stave 10:

E|---------------------------------0--------
B|--7-----8-----10-----7-----3-----0-----3--
G|-----0-----0------0-----0--------0-----0--
D|---------------------------------2-----4--
A|---------------------------------2-----3--
E|---------------------------------0--------

http://www.guitartabcreator.com
Guitar Tab Creator is intended to store guitar tab created through the tool. It currently does not support in-line text editing. Any text you place in here will be lost. If you need to comment on your tab, please use the "Tab Notes" section located below.