Sound will begin in 5 seconds

You Know What You Are

Chords
01234567891011121314151617181920212223
E
B
G
D
A
E
B
0 1 2 3 4 5 6 7 8 9 10 11 12 13 14 15 16 17 18 19 20 21 22 23
Song Science #1: How Pros Use 6 Chords to Write Hit Songs
(/) Slide Up  (\) Slide Down  (h) Hammer On  (p) Pull Off  (b) Bend (r) Release (v) Vibrato

Stave 1:

E|-----------------------------0--------3--------0--0--
B|-----------------------------0-----3--3--1--3--0--0--
G|--2-----4-----6-----8--------1-----2--0--0--0--0--1--
D|--3-----5-----7-----9--------2-----0--0--2--4--0--2--
A|--3-----5-----7-----9--------2-----------3--5--0--2--
E|--1-----3-----5-----7-----0--------2--3--------0--0--

Stave 2:

E|-----------------------------0--------3--------0-----0--
B|--3-----------3--------------0-----3--3--1--3--1-----1--
G|--2--0--4--5-----4--3--2--0--1-----2--0--0--0--2-----2--
D|--0--------------------------2-----0--0--2--4--2-----3--
A|-----------------------------2-----------3--5--0-----3--
E|--2--------------------------0-----2--3-----------------

Stave 3:

E|------------------------------
B|------------------------------
G|------------------------------
D|------------------------------
A|-----11--9--------9--7--------
E|--0--7---7-----0--5--5--------

Stave 4:

E|--------------------------
B|-----------3--0--4--0--7--
G|--0--4--5-----------------
D|--------------------------
A|--------------------------
E|--------------------------

Stave 5:

E|--7--5-----5-----------------------------------------------
B|--------8-----5--8-----5-----10b11-----10b11--10b11r10--8--
G|--------------------------7--------------------------------
D|-----------------------------------------------------------
A|-----------------------------------------------------------
E|-----------------------------------------------------------

Stave 6:

E|--7-----------------------------------3-----------2-----7--
B|--8-----7-----7-----------------------3-----------2-----7--
G|--9-----7-----6-----------------------4-----2--3--3-----7--
D|--9-----7-----------------2--5--------5-----------4-----9--
A|--7-----5-----4-----3--5--------------5-----------------9--
E|--------------------------------5--4--3-----------------7--

Stave 7:

E|--3--2--------7--
B|--3--3--7-----8--
G|--4--4--7-----9--
D|--5--4--7-----9--
A|--5--2--5-----7--
E|--3--------------

Stave 8:

E|----------------------------------------------------------
B|----------------------------------------------------------
G|--11b12----------------11b12r11--9---------------7--9--7--
D|--------------------9-------------------------------------
A|------------10--12---------------------7--9--10-----------
E|----------------------------------------------------------

Stave 9:

E|----------------------------------------------
B|----------------------------------------------
G|-----------11-----------------11b12r11-----9--
D|--9--8---------12-----11--12------------------
A|----------------------------------------------
E|----------------------------------------------

Stave 10:

E|-------------------------------------------------------------------------
B|-------------------------------------------------------------------------
G|--7--9--7--9--7-----7--------11--9--11--9b10r9-----------------11b12r11--
D|-----------------9-----9--8---------------------12-----11--12------------
A|-------------------------------------------------------------------------
E|-------------------------------------------------------------------------

http://www.guitartabcreator.com
Guitar Tab Creator is intended to store guitar tab created through the tool. It currently does not support in-line text editing. Any text you place in here will be lost. If you need to comment on your tab, please use the "Tab Notes" section located below.