Sound will begin in 5 seconds

Only Uphill

Chords
01234567891011121314151617181920212223
E
B
G
D
A
E
B
0 1 2 3 4 5 6 7 8 9 10 11 12 13 14 15 16 17 18 19 20 21 22 23
Song Science #1: How Pros Use 6 Chords to Write Hit Songs
(/) Slide Up  (\) Slide Down  (h) Hammer On  (p) Pull Off  (b) Bend (r) Release (v) Vibrato

Stave 1:

E|-----------------------------------------------------
B|--------7-------------------------------------11-----
G|--------6--------6-------------12-------------11-----
D|-----8-----8-----8-------------10----------8------9--
A|--9------------------------12------12----------------
E|--------------7--9-----10--------------11------------

Stave 2:

E|------------------------------------------------
B|--------7--------7-----------7-----------6--9---
G|--------7--------7-----------8-----------7--10--
D|-----6--------------------8-----8---------------
A|--------------4--5-----6--------------5---------
E|--7--------7-----------------------6------------

Stave 3:

E|--------6--------4--------------------------
B|--------4--------4-----------7-----------7--
G|-----------------------------8-----------6--
D|--------------------------8-----8-----------
A|-----6-----------------6--------------------
E|--4--------4--6--7-----------------6--6-----

Stave 4:

E|--------6--------4------------------------------
B|--------4--------4-----------7-----------6--9---
G|-----------------------------8-----------7--10--
D|--------------------------8-----8---------------
A|-----6-----------------6--------------5---------
E|--4--------4--6--7-----------------6------------

Stave 5:

E|------------------------------------------------6--
B|--9--------7--------9--------7--------12--------7--
G|--7--------6--------7--------6--------10--------8--
D|--9--------8--------9--------8--------12--------8--
A|--8--------9--------8--------9--------11--------6--
E|---------------------------------------------------

Stave 6:

E|--7------------------------------
B|--7--------7--------------6--9---
G|--8--------6--------------7--10--
D|--9--------8---------------------
A|--9--------9-----------5---------
E|--7-----------------6------------

http://www.guitartabcreator.com
Guitar Tab Creator is intended to store guitar tab created through the tool. It currently does not support in-line text editing. Any text you place in here will be lost. If you need to comment on your tab, please use the "Tab Notes" section located below.