Sound will begin in 5 seconds

Grace Kelly With Wings

Chords
01234567891011121314151617181920212223
E
B
G
D
A
E
B
0 1 2 3 4 5 6 7 8 9 10 11 12 13 14 15 16 17 18 19 20 21 22 23
Song Science #1: How Pros Use 6 Chords to Write Hit Songs
(/) Slide Up  (\) Slide Down  (h) Hammer On  (p) Pull Off  (b) Bend (r) Release (v) Vibrato

Stave 1:

E|----------------------------------------------------------------
B|------------12---------------12---------------------------------
G|------------------------------------12--12--11--11--9--9--7--7--
D|--9--10------------9--10----------------------------------------
A|--0--0-------------0--0-------------10--10--9---9---7--7--5--5--
E|----------------------------------------------------------------

Stave 2:

E|----------------------------------------------------------------------------------
B|----------------------------------------------------------------------------------
G|--12--12--11--11--9--9--7--7--12--12--11--11--9--9--7--7--6--6--6--6--6--6--6--6--
D|----------------------------------------------------------------------------------
A|--10--10--9---9---7--7--5--5--10--10--9---9---7--7--5--5--4--4--4--4--4--4--4--4--
E|----------------------------------------------------------------------------------

Stave 3:

E|----------------------------------------------------------
B|----------------------------------------------------------
G|--12--12--14--14--9--9--7--7--12--12--14--14--9--9--7--7--
D|----------------------------------------------------------
A|--10--10--12--12--7--7--5--5--10--10--12--12--7--7--5--5--
E|----------------------------------------------------------

Stave 4:

E|---------------------------------------------------
B|---------------------------------------------------
G|--12--12--11--11--9--9--7--7--6--6--6--6--6--6--6--
D|---------------------------------------------------
A|--10--10--9---9---7--7--5--5--4--4--4--4--4--4--4--
E|---------------------------------------------------

Stave 5:

E|----------------------------------------------------------
B|----------------------------------------------------------
G|--12--12--11--11--9--9--7--7--12--12--11--11--9--9--7--7--
D|----------------------------------------------------------
A|--10--10--9---9---7--7--5--5--10--10--9---9---7--7--5--5--
E|----------------------------------------------------------

Stave 6:

E|-----------10--------------10------------------------------------
B|--------8---------------8----------------------------------------
G|--7--9------------7--9------------12--12--11--11--9--9--7--7--7--
D|-----------------------------------------------------------------
A|----------------------------------10--10--9---9---7--7--5--5--5--
E|-----------------------------------------------------------------

Stave 7:

E|--10--------10--------10--------------------------------------------------------
B|--8---------8---------8---------------------------------------------------------
G|--9---------9---------9---------------------------------------------------------
D|--7---------7---------7---------------------------------10--10--10--10--10--10--
A|--0---------0---------0---------------------------------------------------------
E|--------------------------------8--8--8--8--8--8--8--8--8---8---8---8---8---8---

Stave 8:

E|--------------------------------------------------------------------------------
B|--------------------------------------------------------------------------------
G|--------------------------------------------------------------------------------
D|--------------5--------------------------5--------------------------5-----------
A|--------5--7-----7--5--4-----------5--7-----7--5--4-----------5--7-----7--5--4--
E|--7--7-----------------------7--7-----------------------7--7--------------------

Stave 9:

E|--------------------------------------------------------------------------------
B|--------------------------------------------------------------------------------
G|--------------------------------------------------------------------------------
D|--------------5--7--9--7-----------------5--------------------------5-----------
A|--------5--7-----------------------5--7-----7--5--4-----------5--7-----7--5--4--
E|--7--7-----------------------7--7-----------------------7--7--------------------

Stave 10:

E|--------------------------------------------------------------------------------
B|--------------------------------------------------------------------------------
G|--------------------------------------------------------------------------------
D|--------------5--------------------------5--------------9-----------5-----------
A|--------5--7-----7--5--4-----------5--7-----7--5--4-----------5--7-----7--5--4--
E|--7--7-----------------------7--7-----------------------7-----------------------

Stave 11:

E|---------------------------------
B|---------------------------------
G|--------7--9--9--11--11--11--11--
D|--9------------------------------
A|--------5--7--7--9---9---9---9---
E|--7------------------------------

Stave 12:

E|--------------------------------------------------
B|--------------------------------------------------
G|--------------------------------------------------
D|--------------------------------------------------
A|--7--------6--------5--------4--------3--------2--
E|--5--------4--------3--------2--------1--------0--

Stave 13:

E|--------------------------------------------------------------------------------------
B|--------------------------------------------------------------------------------------
G|-----------------------7--------------------9-----------------------------------------
D|--7--------------------7--------------------9--------------------7--------------------
A|--7--------------------5--5--5--5--5--5--5--7--7--7--7--7--7--7--7--------------------
E|--5--5--5--5--5--5--5--------------------------------------------5--5--5--5--5--5--5--

Stave 14:

E|---------------------------------------------------------------
B|---------------------------------------------------------------
G|--7--------------------9--------------------2------------------
D|--7--------------------9--------------------2------------------
A|--5--5--5--5--5--5--5--7--7--7--7--7--7--7--0--0--4p0--5p0--0--
E|---------------------------------------------------------------

Stave 15:

E|--------------------------------------------------------------------------------------
B|--9b10--9b10--9b10--9b10--9b10--9b10--9b10--9b10--9b10--9b10--9b10--9b10--9b10--9b10--
G|--------------------------------------------------------------------------------------
D|--------------------------------------------------------------------------------------
A|--------------------------------------------------------------------------------------
E|--------------------------------------------------------------------------------------

Stave 16:

E|----------------------------------------------------------------------------------------------
B|----------------------------------------------------------------------------------------------
G|----------------------------------------------------------------------------------------------
D|----------------------------------------------------------------------------------------------
A|--0--0--4p0--5p0--0--0--0--4p0--5p0--0--0--0--4p0--5p0--0--0--0--4p0--5p0--0--0--0--4p0--5p0--
E|----------------------------------------------------------------------------------------------

Stave 17:

E|-----------------------------------------------------------------------------------------------
B|-----------------------------------------------------------------------------------------------
G|--------------------7--------7--7--------------------------------------------------------------
D|--------------------7--------7--7--------------------------7--------7--7-----------------------
A|--------------------5--------5--5--------------------------7--------7--7-----------------------
E|-----------------------------------------------------------5--------5--5-----------------------

Stave 18:

E|-------------------------------------------
B|-------------------------------------------
G|-------------------------------------------
D|-------------------------------------------
A|--0--0--0--4p0--5p0--0--0--0--4p0--5p0--0--
E|-------------------------------------------

Stave 19:

E|-----------------------------10p9------10--
B|-----------------------------------10------
G|-----7--------7--7-------------------------
D|-----7--------7--7-------------------------
A|-----5--------5--5-------------------------
E|-------------------------------------------

Stave 20:

E|--------------------------------------------------------10p9------10--
B|--------------------------------------------------------------10------
G|-----------------7--7--7-----------------------7--7--7----------------
D|--7--7--7--------7--7--7--------7--7--7--------7--7--7----------------
A|--7--7--7--------5--5--5--------7--7--7--------5--5--5----------------
E|--5--5--5-----------------------5--5--5-------------------------------

Stave 21:

E|--------------------------------------------------------
B|--------------------------------------------------------
G|-----------------7--7--7--------------------------------
D|--7--7--7--------7--7--7--------7--7--7--------5--------
A|--7--7--7--------5--5--5--------7--7--7--------5--------
E|--5--5--5-----------------------5--5--5--------3--------

Stave 22:

E|---------------------------------------------------------------------------------------------
B|-------------15-------------------15--15-----------------15----------15----------15----------
G|-------------12-------------------12------12-----------------12----------12----------12------
D|--9--10--12--14--------9--10--12--14----------14-----14----------14----------14----------14--
A|---------------------------------------------------------------------------------------------
E|---------------------------------------------------------------------------------------------

Stave 23:

E|--------------------------------------------------------------------------
B|--15----------15----------15----------15----------15----------15----------
G|------12----------12----------12----------12----------12----------12------
D|----------14----------14----------14----------14----------14----------14--
A|--------------------------------------------------------------------------
E|--------------------------------------------------------------------------

Stave 24:

E|----------------------------------------------------------
B|----------------------------------------------------------
G|--12--12--11--11--9--9--7--7--12--12--11--11--9--9--7--7--
D|----------------------------------------------------------
A|--10--10--9---9---7--7--5--5--10--10--9---9---7--7--5--5--
E|----------------------------------------------------------

Stave 25:

E|------------------------------------------------------
B|------------------------------------------------------
G|--12--12--14--14--9--9--7--7--6--6--6--6--6--6--6--6--
D|------------------------------------------------------
A|--10--10--12--12--7--7--5--5--4--4--4--4--4--4--4--4--
E|------------------------------------------------------

Stave 26:

E|----------------------------------------------------------------------------
B|----------------------------------------------------------------------------
G|--12--12--11--11--9--9--7--7--12--12--11--11--9--9--------12--11--11--9--9--
D|----------------------------------------------------------------------------
A|--10--10--9---9---7--7--5--5--10--10--9---9---7--7--------10--9---9---7--7--
E|----------------------------------------------------------------------------

http://www.guitartabcreator.com
Guitar Tab Creator is intended to store guitar tab created through the tool. It currently does not support in-line text editing. Any text you place in here will be lost. If you need to comment on your tab, please use the "Tab Notes" section located below.