Threat To Society - Beartooth

Chords

01234567891011121314151617181920212223
E
B
G
D
A
E
B
0 1 2 3 4 5 6 7 8 9 10 11 12 13 14 15 16 17 18 19 20 21 22 23
(/) Slide Up  (\) Slide Down  (h) Hammer On  (p) Pull Off  (b) Bend (r) Release (v) Vibrato

Stave 1:

D|---------------------------------------------------------------------------------------------------------------------------------
A|---------------------------------------------------------------------------------------------------------------------------------
F|--------7--7--7--7--------------------7--7--7--7-----------------10--10--10--10--------------------10--10--10--10----------------
C|--0--0--x--x--x--x--0--0--0-----0--0--x--x--x--x--7--7--7--8--8--x---x---x---x---8--8--8-----8--8--x---x---x---x---8--10--8--10--
A|--0--0--5--5--5--5--0--0--0-----0--0--5--5--5--5--7--7--7--8--8--8---8---8---8---8--8--8-----8--8--8---8---8---8---8--10--8--10--
C|--0--0--------------0--0--0-----0--0--------------7--7--7--8--8------------------8--8--8-----8--8------------------8--10--8--10--

Stave 2:

D|-----------------
A|-----------------
F|-----7--7--7--7--
C|--0--x--x--x--x--
A|--0--5--5--5--5--
C|--0--------------

							http://www.guitartabcreator.com
genre
Instruments
{"strings":[[[".",".",".",".",".",".",".",".",".","_",".",".",".",".",".",".",".",".",".",".",".",".",".",".",".",".",".",".","_",".",".",".",".",".",".",".",".",".","."],[".",".",".",".",".",".",".",".",".","_",".",".",".",".",".",".",".",".",".",".",".",".",".",".",".",".",".",".","_",".",".",".",".",".",".",".",".",".","."],[".",".",7,7,7,7,".",".",".","_",".",".",7,7,7,7,".",".",".",".",".",10,10,10,10,".",".",".","_",".",".",10,10,10,10,".",".",".","."],[0,0,"x7","x6","x6","x6",0,0,0,"_",0,0,"x6","x6","x6","x6",7,7,7,8,8,"x9","x9","x9","x9",8,8,8,"_",8,8,"x9","x9","x8","x9",8,10,8,10],[0,0,5,5,5,5,0,0,0,"_",0,0,5,5,5,5,7,7,7,8,8,8,8,8,8,8,8,8,"_",8,8,8,8,8,8,8,10,8,10],[0,0,".",".",".",".",0,0,0,"_",0,0,".",".",".",".",7,7,7,8,8,".",".",".",".",8,8,8,"_",8,8,".",".",".",".",8,10,8,10]],[[".",".",".",".","."],[".",".",".",".","."],[".",7,7,7,7],[0,"x6","x6","x6","x6"],[0,5,5,5,5],[0,".",".",".","."]]],"numberofstrings":6,"notes":["D","A","F","C","A","C"],"capo":0,"stringnotes":["D3","A2","F2","C2","G1","C1"],"comments":["Stave 1:","Stave 2:"],"timing":[["W","W","W","W","W","W","W","W","W","W","W","W","W","W","W","W","W","W","W","W","W","W","W","W","W","W","W","W",null,"W","W","W","W","W","W","W","W","W","W"],["W","W","W","W","W"]],"timingvisible":false,"tabcounter":4,"stave":1,"totalstaves":2,"instrument":"6guitar","selectedtuning":"Drop C","version":"13"}

Member for

3 months 1 week
About Me
guitar
Submitted by PARTYPOISON34 on Tue, 2020-08-25 12:47