Sound will begin in 5 seconds

New Age Bass

01234567891011121314151617181920212223
E
B
G
D
A
E
B
0 1 2 3 4 5 6 7 8 9 10 11 12 13 14 15 16 17 18 19 20 21 22 23
Song Science #1: How Pros Use 6 Chords to Write Hit Songs
(/) Slide Up  (\) Slide Down  (h) Hammer On  (p) Pull Off  (b) Bend (r) Release (v) Vibrato

Stave 1:

E|-----------------------------------------------------------------------------------
B|-----------------------------------------------------------------------------------
G|-----------------------------------------------------------------------------------
D|-----6--5------------------------------------------------6--5--6/8-----5-----------
A|--6--------6/8-----------6--5--6--5-------------------6-------------------6-----4--
E|-------------------------------------6/8-------------------------------------------

Stave 2:

E|---------------------------------------------------------------------------------------------
B|---------------------------------------------------------------------------------------------
G|---------------------------------------------------------------------------------------------
D|-----6--5--6-------------------------------------------6--5----------------------------------
A|--6-----------5-----------6--5--6--5--8/9-----------6--------6/8-----------6--5--6--5-----6--
E|---------------------------------------------------------------------------------------6-----

Stave 3:

E|-----------------------------------------
B|-----------------------------------------
G|-----------------------------------------
D|--------------------6-----8--9--8-----6--
A|--6-----8-----9--------------------------
E|-----------------------------------------

Stave 4:

E|-------------------------------------------
B|-------------------------------------------
G|-------------------------------------------
D|-----6--5--6-------------------------------
A|--6-----------5-----------6--5--6--5--8/9--
E|-------------------------------------------

Stave 5:

E|--------------------------------------------------------------------------------------------------------------------------
B|--------------------------------------------------------------------------------------------------------------------------
G|--------------------------------------------------------------------------------------------------------------------------
D|--------------------------------------------------------------------------------------------------------------------------
A|-----6--5--6-----6--5--6-----6--5--6-----6--5--6-----6--5--6-----6--5--6-----6--5--6-----6--8--6-----------8--8--8--8--8--
E|--8-----------4-----------3-----------6-----------8-----------4-----------3-----------6-----------------------------------

Stave 6:

E|-------------------------------------------------------------------------------------------
B|-------------------------------------------------------------------------------------------
G|-------------------------------------------------------------------------------------------
D|-----6--5---------------------------------------------6--5---------------------------------
A|--6--------6/8-----------6--5--6--5----------------6--------6/8-----------6--5--6--5--6/8--
E|-------------------------------------6/8---------------------------------------------------

http://www.guitartabcreator.com
Guitar Tab Creator is intended to store guitar tab created through the tool. It currently does not support in-line text editing. Any text you place in here will be lost. If you need to comment on your tab, please use the "Tab Notes" section located below.