Sound will begin in 5 seconds

LESSON 4

Chords
01234567891011121314151617181920212223
E
B
G
D
A
E
B
0 1 2 3 4 5 6 7 8 9 10 11 12 13 14 15 16 17 18 19 20 21 22 23
Song Science #1: How Pros Use 6 Chords to Write Hit Songs
(/) Slide Up  (\) Slide Down  (h) Hammer On  (p) Pull Off  (b) Bend (r) Release (v) Vibrato

Stave 1:

E|-----------------------------------------------------
B|-----------------------------------------------------
G|-----------------------------------------------------
D|-----------------------------------------------------
A|--2--2--4--4--5--5--4--2-----2--2--4--4--5--5--4-----
E|--0--0--0--0--0--0--0--0-----0--0--0--0--0--0--0-----

Stave 2:

E|-----------------------------------------------------
B|-----------------------------------------------------
G|-----------------------------------------------------
D|--2--2--4--4--5--5--4--2-----2--2--4--4--5--5--4-----
A|--0--0--0--0--0--0--0--0-----0--0--0--0--0--0--0-----
E|-----------------------------------------------------

Stave 3:

E|-----0-----------------2-----------------0-----------------2--------------
B|-----2-----------------4-----------------1-----------------3--------------
G|-----2-----------------4-----------------0--------5--------2--------7-----
D|-----2--------7--------4--------9--------2--------5--------0--------7-----
A|-----0--------7--------2--------9--------3--------3-----------------5-----
E|--------------5-----------------7-----------------------------------------

Stave 4:

E|-----1-----------------1-----------------3-----------------
B|-----1-----------------1-----------------3-----------------
G|-----1--------9--------2-----------------0-----------------
D|-----2--------9--------3--------3--------0--------5--------
A|-----2--------7-----------------3--------2--------5--------
E|-----0--------------------------1--------3--------3--------

Stave 5:

E|--------------------------------------------------------------------------------
B|--------------------------------------------------------------------------------
G|--------------------------------------------------------------------------------
D|-----------5-----7-----------5-----8-----7--------------5-----7-----5-----------
A|-----2-----5-----7-----2-----5-----8-----7--------2-----5-----7-----5-----2-----
E|-----0-----3-----5-----0-----3-----6-----5--------0-----3-----5-----3-----0-----

http://www.guitartabcreator.com
Guitar Tab Creator is intended to store guitar tab created through the tool. It currently does not support in-line text editing. Any text you place in here will be lost. If you need to comment on your tab, please use the "Tab Notes" section located below.