Sound will begin in 5 seconds

FINAL BASIC CHORDS AND BAR CHORDS

Chords
01234567891011121314151617181920212223
E
B
G
D
A
E
B
0 1 2 3 4 5 6 7 8 9 10 11 12 13 14 15 16 17 18 19 20 21 22 23
Song Science #1: How Pros Use 6 Chords to Write Hit Songs
(/) Slide Up  (\) Slide Down  (h) Hammer On  (p) Pull Off  (b) Bend (r) Release (v) Vibrato

Stave 1:

E|-----0-----0--------2-----2--------0-----3-----
B|-----2-----1--------4-----3--------1-----4-----
G|-----2-----2--------4-----4--------0-----5-----
D|-----2-----2--------4-----4--------2-----5-----
A|-----0-----0--------2-----2--------3-----3-----
E|-----------------------------------------------

Stave 2:

E|-----2-----1--------0-----0-----
B|-----3-----3--------0-----0-----
G|-----2-----2--------1-----0-----
D|-----0-----0--------2-----2-----
A|--------------------2-----2-----
E|--------------------0-----0-----

Stave 3:

E|-----1-----1--------3-----3-----
B|-----1-----1--------3-----3-----
G|-----2-----1--------0-----3-----
D|-----3-----3--------0-----5-----
A|-----------3--------2-----5-----
E|-----------1--------3-----3-----

Stave 4:

E|-----5-----5--------7-----7--------3-----3-----
B|-----5-----5--------7-----7--------5-----3-----
G|-----6-----5--------8-----7--------5-----5-----
D|-----7-----7--------9-----9--------5-----5-----
A|-----7-----7--------9-----9--------3-----3-----
E|-----5-----5--------7-----7--------------------

Stave 5:

E|-----5-----5--------7-----7--------1-----1--------3-----3-----
B|-----7-----6--------9-----8--------1-----1--------3-----3-----
G|-----7-----7--------9-----9--------2-----1--------4-----3-----
D|-----7-----7--------9-----9--------3-----3--------5-----5-----
A|-----5-----5--------7-----7--------3-----3--------5-----5-----
E|--------------------0-----0--------1-----1--------3-----3-----

http://www.guitartabcreator.com
Guitar Tab Creator is intended to store guitar tab created through the tool. It currently does not support in-line text editing. Any text you place in here will be lost. If you need to comment on your tab, please use the "Tab Notes" section located below.