Pa Despejar la Mente - Equilibiro - Requinto

Chords

01234567891011121314151617181920212223
E
B
G
D
A
E
B
0 1 2 3 4 5 6 7 8 9 10 11 12 13 14 15 16 17 18 19 20 21 22 23
(/) Slide Up  (\) Slide Down  (h) Hammer On  (p) Pull Off  (b) Bend (r) Release (v) Vibrato

Stave 1:

E|--------5--5h7-----------------
B|----------------------------5--
G|--4--7----------------4--6-----
D|----------------4--7-----------
A|-------------------------------
E|-------------------------------

Stave 2:

E|--------5--5h7----------------
B|------------------------------
G|--4--7----------------4--4h6--
D|----------------4--7----------
A|------------------------------
E|------------------------------

Stave 3:

E|--9---9---9---9---9---10--5--
B|--10--10--10--11--11--12--7--
G|-----------------------------
D|-----------------------------
A|-----------------------------
E|-----------------------------

Stave 4:

E|--10--5--5--9---9/10---------5--5--
B|--12--7--7--10--------10/12--7--7--
G|-----------------------------------
D|-----------------------------------
A|-----------------------------------
E|-----------------------------------

Stave 5:

E|--9---9/10---------10--10--9---
B|--10--------10/12--12--12--10--
G|-------------------------------
D|-------------------------------
A|-------------------------------
E|-------------------------------

Stave 6:

E|--9---9/10---------10--10--9---12--9---
B|--10--------10/12--12--12--10--10--10--
G|-------------------------------11--11--
D|---------------------------------------
A|---------------------------------------
E|---------------------------------------

Stave 7:

E|--2/7-------2/7-------2/7-------2/5-------
B|-------3/8-------3/8-------3/8-------3/7--
G|------------------------------------------
D|------------------------------------------
A|------------------------------------------
E|------------------------------------------

Stave 8:

E|--7--5-----5--------------------------
B|--------7-----7--5--7--5-----5--7--5--
G|--------------------------7-----------
D|--------------------------------------
A|--------------------------------------
E|--------------------------------------

Stave 9:

E|--2/7-------2/7-------2/7-------2/6-------
B|-------3/8-------3/8-------3/8-------3/7--
G|------------------------------------------
D|------------------------------------------
A|------------------------------------------
E|------------------------------------------

Stave 10:

E|-------------------------------------------
B|--8--7--5--7--5-----5----------------------
G|-----------------7-----7--6--7--6----------
D|-----------------------------------7--7/9--
A|-------------------------------------------
E|-------------------------------------------

							http://www.guitartabcreator.com
Instruments
{"strings":[[[".",".",5,5,"h",7,".",".",".",".","."],[".",".",".",".",".",".",".",".",".",".",5],[4,7,".",".",".",".",".",".",4,6,"."],[".",".",".",".",".",".",4,7,".",".","."],[".",".",".",".",".",".",".",".",".",".","."],[".",".",".",".",".",".",".",".",".",".","."]],[[".",".",5,5,"h",7,".",".",".",".",".","."],[".",".",".",".",".",".",".",".",".",".",".","."],[4,7,".",".",".",".",".",".",4,4,"h",6],[".",".",".",".",".",".",4,7,".",".",".","."],[".",".",".",".",".",".",".",".",".",".",".","."],[".",".",".",".",".",".",".",".",".",".",".","."]],[[9,9,9,9,9,10,5],[10,10,10,11,11,12,7],[".",".",".",".",".",".","."],[".",".",".",".",".",".","."],[".",".",".",".",".",".","."],[".",".",".",".",".",".","."]],[[10,5,5,9,9,"/",10,".",".",".",5,5],[12,7,7,10,".",".",".",10,"/",12,7,7],[".",".",".",".",".",".",".",".",".",".",".","."],[".",".",".",".",".",".",".",".",".",".",".","."],[".",".",".",".",".",".",".",".",".",".",".","."],[".",".",".",".",".",".",".",".",".",".",".","."]],[[9,9,"/",10,".",".",".",10,10,9],[10,".",".",".",10,"/",12,12,12,10],[".",".",".",".",".",".",".",".",".","."],[".",".",".",".",".",".",".",".",".","."],[".",".",".",".",".",".",".",".",".","."],[".",".",".",".",".",".",".",".",".","."]],[[9,9,"/",10,".",".",".",10,10,9,12,9],[10,".",".",".",10,"/",12,12,12,10,10,10],[".",".",".",".",".",".",".",".",".",".",11,11],[".",".",".",".",".",".",".",".",".",".",".","."],[".",".",".",".",".",".",".",".",".",".",".","."],[".",".",".",".",".",".",".",".",".",".",".","."]],[[2,"/",7,".",".",".",2,"/",7,".",".",".",2,"/",7,".",".",".",2,"/",5,".",".","."],[".",".",".",3,"/",8,".",".",".",3,"/",8,".",".",".",3,"/",8,".",".",".",3,"/",7],[".",".",".",".",".",".",".",".",".",".",".",".",".",".",".",".",".",".",".",".",".",".",".","."],[".",".",".",".",".",".",".",".",".",".",".",".",".",".",".",".",".",".",".",".",".",".",".","."],[".",".",".",".",".",".",".",".",".",".",".",".",".",".",".",".",".",".",".",".",".",".",".","."],[".",".",".",".",".",".",".",".",".",".",".",".",".",".",".",".",".",".",".",".",".",".",".","."]],[[7,5,".",5,".",".",".",".",".",".",".","."],[".",".",7,".",7,5,7,5,".",5,7,5],[".",".",".",".",".",".",".",".",7,".",".","."],[".",".",".",".",".",".",".",".",".",".",".","."],[".",".",".",".",".",".",".",".",".",".",".","."],[".",".",".",".",".",".",".",".",".",".",".","."]],[[2,"/",7,".",".",".",2,"/",7,".",".",".",2,"/",7,".",".",".",2,"/",6,".",".","."],[".",".",".",3,"/",8,".",".",".",3,"/",8,".",".",".",3,"/",8,".",".",".",3,"/",7],[".",".",".",".",".",".",".",".",".",".",".",".",".",".",".",".",".",".",".",".",".",".",".","."],[".",".",".",".",".",".",".",".",".",".",".",".",".",".",".",".",".",".",".",".",".",".",".","."],[".",".",".",".",".",".",".",".",".",".",".",".",".",".",".",".",".",".",".",".",".",".",".","."],[".",".",".",".",".",".",".",".",".",".",".",".",".",".",".",".",".",".",".",".",".",".",".","."]],[[".",".",".",".",".",".",".",".",".",".",".",".",".",".","."],[8,7,5,7,5,".",5,".",".",".",".",".",".",".","."],[".",".",".",".",".",7,".",7,6,7,6,".",".",".","."],[".",".",".",".",".",".",".",".",".",".",".",7,7,"/",9],[".",".",".",".",".",".",".",".",".",".",".",".",".",".","."],[".",".",".",".",".",".",".",".",".",".",".",".",".",".","."]]],"numberofstrings":6,"notes":["E","B","G","D","A","E","B"],"capo":0,"stringnotes":["E4","B3","G3","D3","A2","E2"],"comments":["Stave 1:","Stave 2:","Stave 3:","Stave 4:","Stave 5:","Stave 6:","Stave 7:","Stave 8:","Stave 9:","Stave 10:","Stave 11:"],"timing":[["W","W","W","W",null,"W","W","W","W","W","W"],["W","W","W","W",null,"W","W","W","W","W",null,"W"],["W","W","W","W","W","W","W"],["W","W","W","W","W",null,"W","W",null,"W","W","W"],["W","W",null,"W","W",null,"W","W","W","W"],["W","W",null,"W","W",null,"W","W","W","W","W","W"],["W",null,"W","W",null,"W","W",null,"W","W",null,"W","W",null,"W","W",null,"W","W",null,"W","W",null,"W"],["W","W","W","W","W","W","W","W","W","W","W","W"],["W",null,"W","W",null,"W","W",null,"W","W",null,"W","W",null,"W","W",null,"W","W",null,"W","W",null,"W"],["W","W","W","W","W","W","W","W","W","W","W","W","W",null,"W"],["W","W"]],"timingvisible":false,"tabcounter":6,"stave":2,"totalstaves":10,"instrument":"6guitar","selectedtuning":"6_standard","version":"13"}

Member for

1 month 3 weeks
Submitted by Pardo Tutorials on Mon, 2020-10-19 15:18