Me Entretiene - Ajetreo Personal - Requinto

Chords

01234567891011121314151617181920212223
E
B
G
D
A
E
B
0 1 2 3 4 5 6 7 8 9 10 11 12 13 14 15 16 17 18 19 20 21 22 23
(/) Slide Up  (\) Slide Down  (h) Hammer On  (p) Pull Off  (b) Bend (r) Release (v) Vibrato

Stave 1:

E|-----------------
B|-----------------
G|--3--5--7--3--3--
D|--5--7--8--5--5--
A|-----------------
E|-----------------

Stave 2:

E|-----------------------------------
B|-----------------------------------
G|--3--3--3--3--3--3--3--3/10--------
D|--5--5--5--5--5--5--5--------5/12--
A|-----------------------------------
E|-----------------------------------

Stave 3:

E|----------------------------------------
B|----------------------------------------
G|--8---7--7--7--7--7--7--7--7\5-------5--
D|--10--8--8--8--8--8--8--8-------8\7--7--
A|----------------------------------------
E|----------------------------------------

Stave 4:

E|-------------------------------------------------
B|-------------------------------------------------
G|-----3/5-------5--5--5-----3-----5--5/7-------7--
D|----------5/7--7--7--7--5-----7----------7/8--8--
A|-------------------------------------------------
E|-------------------------------------------------

Stave 5:

E|---------------------------
B|---------------------------
G|--5--5/7-------7--7--7--7--
D|--7-------7/8--8--8--8--8--
A|---------------------------
E|---------------------------

Stave 6:

E|--6--8---8/10---------6--6--
B|--8--10--------10/11--8--8--
G|----------------------------
D|----------------------------
A|----------------------------
E|----------------------------

Stave 7:

E|--6--6--6--6--6--6--6--6/13--------11--
B|--8--8--8--8--8--8--8--------8/15--13--
G|---------------------------------------
D|---------------------------------------
A|---------------------------------------
E|---------------------------------------

Stave 8:

E|--10--10--10--10--10--10--10--10\8---------8---
B|--11--11--11--11--11--11--11--------11\10--10--
G|-----------------------------------------------
D|-----------------------------------------------
A|-----------------------------------------------
E|-----------------------------------------------

Stave 9:

E|--6/8--------8---8---8------6------8--8/10---------10--
B|-------8/10--10--10--10--8-----10-----------10/11--11--
G|-------------------------------------------------------
D|-------------------------------------------------------
A|-------------------------------------------------------
E|-------------------------------------------------------

Stave 10:

E|--8---8/10---------10--10--10--10--
B|--10--------10/11--11--11--11--11--
G|-----------------------------------
D|-----------------------------------
A|-----------------------------------
E|-----------------------------------

							http://www.guitartabcreator.com
Instruments
{"strings":[[[".",".",".",".","."],[".",".",".",".","."],[3,5,7,3,3],[5,7,8,5,5],[".",".",".",".","."],[".",".",".",".","."]],[[".",".",".",".",".",".",".",".",".",".",".",".","."],[".",".",".",".",".",".",".",".",".",".",".",".","."],[3,3,3,3,3,3,3,3,"/",10,".",".","."],[5,5,5,5,5,5,5,".",".",".",5,"/",12],[".",".",".",".",".",".",".",".",".",".",".",".","."],[".",".",".",".",".",".",".",".",".",".",".",".","."]],[[".",".",".",".",".",".",".",".",".",".",".",".",".",".","."],[".",".",".",".",".",".",".",".",".",".",".",".",".",".","."],[8,7,7,7,7,7,7,7,7,"\\",5,".",".",".",5],[10,8,8,8,8,8,8,8,".",".",".",8,"\\",7,7],[".",".",".",".",".",".",".",".",".",".",".",".",".",".","."],[".",".",".",".",".",".",".",".",".",".",".",".",".",".","."]],[[".",".",".",".",".",".",".",".",".",".",".",".",".",".",".",".",".",".",".",".","."],[".",".",".",".",".",".",".",".",".",".",".",".",".",".",".",".",".",".",".",".","."],[".",3,"/",5,".",".",".",5,5,5,".",3,".",5,5,"/",7,".",".",".",7],[".",".",".",".",5,"/",7,7,7,7,5,".",7,".",".",".",".",7,"/",8,8],[".",".",".",".",".",".",".",".",".",".",".",".",".",".",".",".",".",".",".",".","."],[".",".",".",".",".",".",".",".",".",".",".",".",".",".",".",".",".",".",".",".","."]],[[".",".",".",".",".",".",".",".",".",".","."],[".",".",".",".",".",".",".",".",".",".","."],[5,5,"/",7,".",".",".",7,7,7,7],[7,".",".",".",7,"/",8,8,8,8,8],[".",".",".",".",".",".",".",".",".",".","."],[".",".",".",".",".",".",".",".",".",".","."]],[[6,8,8,"/",10,".",".",".",6,6],[8,10,".",".",".",10,"/",11,8,8],[".",".",".",".",".",".",".",".",".","."],[".",".",".",".",".",".",".",".",".","."],[".",".",".",".",".",".",".",".",".","."],[".",".",".",".",".",".",".",".",".","."]],[[6,6,6,6,6,6,6,6,"/",13,".",".",".",11],[8,8,8,8,8,8,8,".",".",".",8,"/",15,13],[".",".",".",".",".",".",".",".",".",".",".",".",".","."],[".",".",".",".",".",".",".",".",".",".",".",".",".","."],[".",".",".",".",".",".",".",".",".",".",".",".",".","."],[".",".",".",".",".",".",".",".",".",".",".",".",".","."]],[[10,10,10,10,10,10,10,10,"\\",8,".",".",".",8],[11,11,11,11,11,11,11,".",".",".",11,"\\",10,10],[".",".",".",".",".",".",".",".",".",".",".",".",".","."],[".",".",".",".",".",".",".",".",".",".",".",".",".","."],[".",".",".",".",".",".",".",".",".",".",".",".",".","."],[".",".",".",".",".",".",".",".",".",".",".",".",".","."]],[[6,"/",8,".",".",".",8,8,8,".",6,".",8,8,"/",10,".",".",".",10],[".",".",".",8,"/",10,10,10,10,8,".",10,".",".",".",".",10,"/",11,11],[".",".",".",".",".",".",".",".",".",".",".",".",".",".",".",".",".",".",".","."],[".",".",".",".",".",".",".",".",".",".",".",".",".",".",".",".",".",".",".","."],[".",".",".",".",".",".",".",".",".",".",".",".",".",".",".",".",".",".",".","."],[".",".",".",".",".",".",".",".",".",".",".",".",".",".",".",".",".",".",".","."]],[[8,8,"/",10,".",".",".",10,10,10,10],[10,".",".",".",10,"/",11,11,11,11,11],[".",".",".",".",".",".",".",".",".",".","."],[".",".",".",".",".",".",".",".",".",".","."],[".",".",".",".",".",".",".",".",".",".","."],[".",".",".",".",".",".",".",".",".",".","."]]],"numberofstrings":6,"notes":["E","B","G","D","A","E","B"],"capo":0,"stringnotes":["E4","B3","G3","D3","A2","E2"],"comments":["Stave 1:","Stave 2:","Stave 3:","Stave 4:","Stave 5:","Stave 6:","Stave 7:","Stave 8:","Stave 9:","Stave 10:"],"timing":[["W","W","W","W","W"],["W","W","W","W","W","W","W","W","W","W","W","W","W"],["W","W","W","W","W","W","W","W","W",null,"W","W",null,"W","W"],[null,"W",null,"W","W","W","W","W","W","W","W","W","W","W","W",null,"W","W",null,"W","W"],["W","W","W","W","W","W","W","W","W","W","W"],["W","W","W",null,"W","W",null,"W","W","W"],["W","W","W","W","W","W","W","W",null,"W","W",null,"W","W"],["W","W","W","W","W","W","W","W","W","W","W",null,"W","W"],["W",null,"W","W","W","W","W","W","W","W","W","W","W","W","W","W","W","W","W","W"],["W","W",null,"W","W",null,"W","W","W","W","W"]],"timingvisible":false,"tabcounter":11,"stave":9,"totalstaves":10,"instrument":"6guitar","selectedtuning":"6_standard","version":"13"}

Member for

3 weeks 5 days
Submitted by Pardo Tutorials on Wed, 2020-09-30 13:36