Labios Rojos - Adornos

Chords

01234567891011121314151617181920212223
E
B
G
D
A
E
B
0 1 2 3 4 5 6 7 8 9 10 11 12 13 14 15 16 17 18 19 20 21 22 23
(/) Slide Up  (\) Slide Down  (h) Hammer On  (p) Pull Off  (b) Bend (r) Release (v) Vibrato

Stave 1:

E|---------------------------------------------
B|---------------------------------------------
G|--5h6p5-----5--------------------------------
D|---------8-----8--6--6h8p6--5--6--5----------
A|-------------------------------------6--6/8--
E|---------------------------------------------

Stave 2:

E|-----------------
B|--------6--------
G|-----5-----5-----
D|--6-----------6--
A|-----------------
E|-----------------

Stave 3:

E|----------------------
B|-------------6--------
G|-------6--------6-----
D|--6/8-----8--------8--
A|----------------------
E|----------------------

Stave 4:

E|-----------------------
B|-------------8---------
G|------8---------8------
D|--10-----10--------10--
A|-----------------------
E|-----------------------

Stave 5:

E|-----------4--------6--------4--------
B|-----6--------6--------6--------6-----
G|--5-----5--------5--------5--------5--
D|--------------------------------------
A|--------------------------------------
E|--------------------------------------

Stave 6:

E|-----------4-----------6-----------4-----------------
B|--------6-----------6-----------6--------------------
G|--5--5--------5--5--------5--5--------5--5-----------
D|--------------------------------------------6--7--8--
A|-----------------------------------------------------
E|-----------------------------------------------------

Stave 7:

E|-----------4--------
B|-----6--------6-----
G|--5-----5--------5--
D|--------------------
A|--------------------
E|--------------------

Stave 8:

E|-----------------------------------------------
B|-----------------------------------------------
G|--------------------3-----------------5--------
D|--------------3--------3--------5--------5-----
A|--3--2--1--1-----1--------1--3-----3--------3--
E|-----------------------------------------------

Stave 9:

E|--------------------------------------------
B|--------------------------------------------
G|-------------5h6p5--5-----------------------
D|-------6---------------8--6h8p6--6--5--5h6--
A|--4/8-----8---------------------------------
E|--------------------------------------------

Stave 10:

E|--8---4--6--4--6--8--6--4--6--4--6--
B|--8---6--6--6--6--6--4--6--6--6--6--
G|--8---5--5--5--5--8--6--5--5--5--5--
D|--10--------------------------------
A|------------------------------------
E|------------------------------------

Stave 11:

E|--------------------------8---
B|-----------------6--------8---
G|-----------6--------6-----8---
D|--6--7--8-----8--------8--10--
A|------------------------------
E|------------------------------

Stave 12:

E|--------------------------
B|-----------------6--------
G|-----------6--------6-----
D|--6--7--8-----8--------8--
A|--------------------------
E|--------------------------

							http://www.guitartabcreator.com
Instruments
{"strings":[[[".",".",".",".",".",".",".",".",".",".",".",".",".",".",".",".",".",".",".",".","."],[".",".",".",".",".",".",".",".",".",".",".",".",".",".",".",".",".",".",".",".","."],[5,"h",6,"p",5,".",5,".",".",".",".",".",".",".",".",".",".",".",".",".","."],[".",".",".",".",".",8,".",8,6,6,"h",8,"p",6,5,6,5,".",".",".","."],[".",".",".",".",".",".",".",".",".",".",".",".",".",".",".",".",".",6,6,"/",8],[".",".",".",".",".",".",".",".",".",".",".",".",".",".",".",".",".",".",".",".","."]],[[".",".",".",".","."],[".",".",6,".","."],[".",5,".",5,"."],[6,".",".",".",6],[".",".",".",".","."],[".",".",".",".","."]],[[".",".",".",".",".",".",".","."],[".",".",".",".",".",6,".","."],[".",".",".",6,".",".",6,"."],[6,"/",8,".",8,".",".",8],[".",".",".",".",".",".",".","."],[".",".",".",".",".",".",".","."]],[[".",".",".",".",".","."],[".",".",".",8,".","."],[".",8,".",".",8,"."],[10,".",10,".",".",10],[".",".",".",".",".","."],[".",".",".",".",".","."]],[[".",".",".",4,".",".",6,".",".",4,".","."],[".",6,".",".",6,".",".",6,".",".",6,"."],[5,".",5,".",".",5,".",".",5,".",".",5],[".",".",".",".",".",".",".",".",".",".",".","."],[".",".",".",".",".",".",".",".",".",".",".","."],[".",".",".",".",".",".",".",".",".",".",".","."]],[[".",".",".",4,".",".",".",6,".",".",".",4,".",".",".",".","."],[".",".",6,".",".",".",6,".",".",".",6,".",".",".",".",".","."],[5,5,".",".",5,5,".",".",5,5,".",".",5,5,".",".","."],[".",".",".",".",".",".",".",".",".",".",".",".",".",".",6,7,8],[".",".",".",".",".",".",".",".",".",".",".",".",".",".",".",".","."],[".",".",".",".",".",".",".",".",".",".",".",".",".",".",".",".","."]],[[".",".",".",4,".","."],[".",6,".",".",6,"."],[5,".",5,".",".",5],[".",".",".",".",".","."],[".",".",".",".",".","."],[".",".",".",".",".","."]],[[".",".",".",".",".",".",".",".",".",".",".",".",".",".","."],[".",".",".",".",".",".",".",".",".",".",".",".",".",".","."],[".",".",".",".",".",".",3,".",".",".",".",".",5,".","."],[".",".",".",".",3,".",".",3,".",".",5,".",".",5,"."],[3,2,1,1,".",1,".",".",1,3,".",3,".",".",3],[".",".",".",".",".",".",".",".",".",".",".",".",".",".","."]],[[".",".",".",".",".",".",".",".",".",".",".",".",".",".",".",".",".",".",".",".",".","."],[".",".",".",".",".",".",".",".",".",".",".",".",".",".",".",".",".",".",".",".",".","."],[".",".",".",".",".",5,"h",6,"p",5,5,".",".",".",".",".",".",".",".",".",".","."],[".",".",".",6,".",".",".",".",".",".",".",8,6,"h",8,"p",6,6,5,5,"h",6],[4,"/",8,".",8,".",".",".",".",".",".",".",".",".",".",".",".",".",".",".",".","."],[".",".",".",".",".",".",".",".",".",".",".",".",".",".",".",".",".",".",".",".",".","."]],[[8,4,6,4,6,8,6,4,6,4,6],[8,6,6,6,6,6,4,6,6,6,6],[8,5,5,5,5,8,6,5,5,5,5],[10,".",".",".",".",".",".",".",".",".","."],[".",".",".",".",".",".",".",".",".",".","."],[".",".",".",".",".",".",".",".",".",".","."]],[[".",".",".",".",".",".",".",".",8],[".",".",".",".",".",6,".",".",8],[".",".",".",6,".",".",6,".",8],[6,7,8,".",8,".",".",8,10],[".",".",".",".",".",".",".",".","."],[".",".",".",".",".",".",".",".","."]],[[".",".",".",".",".",".",".","."],[".",".",".",".",".",6,".","."],[".",".",".",6,".",".",6,"."],[6,7,8,".",8,".",".",8],[".",".",".",".",".",".",".","."],[".",".",".",".",".",".",".","."]]],"numberofstrings":6,"notes":["E","B","G","D","A","E","B"],"capo":0,"stringnotes":["E4","B3","G3","D3","A2","E2"],"comments":["Stave 1:","Stave 2:","Stave 3:","Stave 4:","Stave 5:","Stave 6:","Stave 7:","Stave 8:","Stave 9:","Stave 10:","Stave 11:","Stave 12:"],"timing":[["W",null,"W",null,"W","W","W","W","W","W",null,"W",null,"W","W","W","W","W","W","W","W"],["W","W","W","W","W","W",null,"W"],["W","W","W","W","W","W","W","W"],["W","W","W","W","W","W"],["W","W","W","W","W","W","W","W","W","W","W","W"],["W","W","W","W","W","W","W","W","W","W","W","W","W","W","W","W","W"],["W","W","W","W","W","W"],["W","W","W","W","W","W","W","W","W","W","W","W","W","W","W"],["W",null,"W","W","W","W",null,"W",null,"W","W","W","W",null,"W",null,"W","W","W","W","W","W","W","W","W"],["W","W","W","W","W","W","W","W","W","W","W"],["W","W","W","W","W","W","W","W","W","W"],["W","W","W","W","W","W","W","W"]],"timingvisible":false,"tabcounter":8,"stave":10,"totalstaves":12,"instrument":"6guitar","selectedtuning":"6_standard","version":"13"}

Member for

2 weeks 5 days
Submitted by Pardo Tutorials on Thu, 2020-10-15 12:09