El Criticado - Grupo Diez 4tro x Grupo TMB - Requinto

Chords

01234567891011121314151617181920212223
E
B
G
D
A
E
B
0 1 2 3 4 5 6 7 8 9 10 11 12 13 14 15 16 17 18 19 20 21 22 23
(/) Slide Up  (\) Slide Down  (h) Hammer On  (p) Pull Off  (b) Bend (r) Release (v) Vibrato

Stave 1:

E|--------7/14--12--12--10--10--
B|--8/15--------13--13--12--12--
G|------------------------------
D|------------------------------
A|------------------------------
E|------------------------------

Stave 2:

E|--8----------8/10--9---8---
B|--10--10/12--------11--10--
G|---------------------------
D|---------------------------
A|---------------------------
E|---------------------------

Stave 3:

E|--7--0--8---0--10--0--12--0--
B|--8--0--10--0--12--0--13--0--
G|-----------------------------
D|-----------------------------
A|-----------------------------
E|-----------------------------

Stave 4:

E|---------12/14--12--12--10--10--
B|--13/15---------13--13--12--12--
G|--------------------------------
D|--------------------------------
A|--------------------------------
E|--------------------------------

Stave 5:

E|--8----------8/10--9---8---
B|--10--10/12--------11--10--
G|---------------------------
D|---------------------------
A|---------------------------
E|---------------------------

Stave 6:

E|--7--0--8---0--9---0--10--0--12--0--13--0--
B|--8--0--10--0--11--0--12--0--13--0--14--0--
G|-------------------------------------------
D|-------------------------------------------
A|-------------------------------------------
E|-------------------------------------------

Stave 7:

E|---------13/14--14--14--14--12--12--10--10--
B|--14/15---------15--15--15--13--13--12--12--
G|--------------------------------------------
D|--------------------------------------------
A|--------------------------------------------
E|--------------------------------------------

Stave 8:

E|--8----------8/10--9---8---8---8---8---
B|--10--10/12--------11--10--10--10--10--
G|---------------------------------------
D|---------------------------------------
A|---------------------------------------
E|---------------------------------------

Stave 9:

E|--7--0--8---0--9---0--10--0--12--0--13--0--
B|--8--0--10--0--11--0--12--0--13--0--14--0--
G|-------------------------------------------
D|-------------------------------------------
A|-------------------------------------------
E|-------------------------------------------

Stave 10:

E|---------13/14--14--14--14--12--12--10--10--
B|--14/15---------15--15--15--13--13--12--12--
G|--------------------------------------------
D|--------------------------------------------
A|--------------------------------------------
E|--------------------------------------------

Stave 11:

E|--8----------8/10--9---8---8---8---8---
B|--10--10/12--------11--10--10--10--10--
G|---------------------------------------
D|---------------------------------------
A|---------------------------------------
E|---------------------------------------

Stave 12:

E|------8--8h11--10--8---------7--
B|--10------------------10--8--8--
G|-----------------------------9--
D|--------------------------------
A|--------------------------------
E|--------------------------------

							http://www.guitartabcreator.com
Instruments
{"strings":[[[".",".",".",7,"/",14,12,12,10,10],[8,"/",15,".",".",".",13,13,12,12],[".",".",".",".",".",".",".",".",".","."],[".",".",".",".",".",".",".",".",".","."],[".",".",".",".",".",".",".",".",".","."],[".",".",".",".",".",".",".",".",".","."]],[[8,".",".",".",8,"/",10,9,8],[10,10,"/",12,".",".",".",11,10],[".",".",".",".",".",".",".",".","."],[".",".",".",".",".",".",".",".","."],[".",".",".",".",".",".",".",".","."],[".",".",".",".",".",".",".",".","."]],[[7,0,8,0,10,0,12,0],[8,0,10,0,12,0,13,0],[".",".",".",".",".",".",".","."],[".",".",".",".",".",".",".","."],[".",".",".",".",".",".",".","."],[".",".",".",".",".",".",".","."]],[[".",".",".",12,"/",14,12,12,10,10],[13,"/",15,".",".",".",13,13,12,12],[".",".",".",".",".",".",".",".",".","."],[".",".",".",".",".",".",".",".",".","."],[".",".",".",".",".",".",".",".",".","."],[".",".",".",".",".",".",".",".",".","."]],[[8,".",".",".",8,"/",10,9,8],[10,10,"/",12,".",".",".",11,10],[".",".",".",".",".",".",".",".","."],[".",".",".",".",".",".",".",".","."],[".",".",".",".",".",".",".",".","."],[".",".",".",".",".",".",".",".","."]],[[7,0,8,0,9,0,10,0,12,0,13,0],[8,0,10,0,11,0,12,0,13,0,14,0],[".",".",".",".",".",".",".",".",".",".",".","."],[".",".",".",".",".",".",".",".",".",".",".","."],[".",".",".",".",".",".",".",".",".",".",".","."],[".",".",".",".",".",".",".",".",".",".",".","."]],[[".",".",".",13,"/",14,14,14,14,12,12,10,10],[14,"/",15,".",".",".",15,15,15,13,13,12,12],[".",".",".",".",".",".",".",".",".",".",".",".","."],[".",".",".",".",".",".",".",".",".",".",".",".","."],[".",".",".",".",".",".",".",".",".",".",".",".","."],[".",".",".",".",".",".",".",".",".",".",".",".","."]],[[8,".",".",".",8,"/",10,9,8,8,8,8],[10,10,"/",12,".",".",".",11,10,10,10,10],[".",".",".",".",".",".",".",".",".",".",".","."],[".",".",".",".",".",".",".",".",".",".",".","."],[".",".",".",".",".",".",".",".",".",".",".","."],[".",".",".",".",".",".",".",".",".",".",".","."]],[[7,0,8,0,9,0,10,0,12,0,13,0],[8,0,10,0,11,0,12,0,13,0,14,0],[".",".",".",".",".",".",".",".",".",".",".","."],[".",".",".",".",".",".",".",".",".",".",".","."],[".",".",".",".",".",".",".",".",".",".",".","."],[".",".",".",".",".",".",".",".",".",".",".","."]],[[".",".",".",13,"/",14,14,14,14,12,12,10,10],[14,"/",15,".",".",".",15,15,15,13,13,12,12],[".",".",".",".",".",".",".",".",".",".",".",".","."],[".",".",".",".",".",".",".",".",".",".",".",".","."],[".",".",".",".",".",".",".",".",".",".",".",".","."],[".",".",".",".",".",".",".",".",".",".",".",".","."]],[[8,".",".",".",8,"/",10,9,8,8,8,8],[10,10,"/",12,".",".",".",11,10,10,10,10],[".",".",".",".",".",".",".",".",".",".",".","."],[".",".",".",".",".",".",".",".",".",".",".","."],[".",".",".",".",".",".",".",".",".",".",".","."],[".",".",".",".",".",".",".",".",".",".",".","."]],[[".",8,8,"h",11,10,8,".",".",7],[10,".",".",".",".",".",".",10,8,8],[".",".",".",".",".",".",".",".",".",9],[".",".",".",".",".",".",".",".",".","."],[".",".",".",".",".",".",".",".",".","."],[".",".",".",".",".",".",".",".",".","."]]],"numberofstrings":6,"notes":["E","B","G","D","A","E","B"],"capo":0,"stringnotes":["E4","B3","G3","D3","A2","E2"],"comments":["Stave 1:","Stave 2:","Stave 3:","Stave 4:","Stave 5:","Stave 6:","Stave 7:","Stave 8:","Stave 9:","Stave 10:","Stave 11:","Stave 12:"],"timing":[["W","W","W","W","W","W","W","W","W","W"],["W","W","W","W","W","W","W","W","W"],["W","W","W","W","W","W","W","W"],["W",null,"W","W","W","W","W","W","W","W"],["W","W",null,"W","W",null,"W","W","W"],["W","W","W","W","W","W","W","W","W","W","W","W"],["W",null,"W","W","W","W","W","W","W","W","W","W","W"],["W","W",null,"W","W",null,"W","W","W","W","W","W"],["W","W","W","W","W","W","W","W","W","W","W","W"],["W",null,"W","W","W","W","W","W","W","W","W","W","W"],["W","W",null,"W","W",null,"W","W","W","W","W","W"],["W","W","W",null,"W","W","W","W","W","W"]],"timingvisible":false,"tabcounter":9,"stave":11,"totalstaves":12,"instrument":"6guitar","selectedtuning":"6_standard","version":"13"}

Member for

3 months 2 weeks
Submitted by Pardo Tutorials on Wed, 2021-01-13 17:00