suenos de amor grupo kual de dinastia cagaza

Chords

01234567891011121314151617181920212223
E
B
G
D
A
E
B
0 1 2 3 4 5 6 7 8 9 10 11 12 13 14 15 16 17 18 19 20 21 22 23
(/) Slide Up  (\) Slide Down  (h) Hammer On  (p) Pull Off  (b) Bend (r) Release (v) Vibrato

 play this stave the bottom one is how you would play normally

G|--------------|--------------|--------------|--------------|--
D|--------------|--------------|--------------|--------------|--
A|--7-----------|--7-----------|--5-----------|--5-----------|--
E|-----7--------|-----7--------|-----5--------|-----5--------|--
B|--------------|--------------|--------------|--------------|--

this is just an example of how the song goes. the last note is not played

G|-----------|-----------|-----------|-----------|--
D|-----------|-----------|-----------|-----------|--
A|--7--------|--7--------|--5--------|--5--------|--
E|-----7--7--|-----7--7--|-----5--5--|-----5--5--|--
B|-----------|-----------|-----------|-----------|--

							http://www.guitartabcreator.com
Tab Notes
there is a rest after the second note. do you see the second stave? dont play it like that. mute the last note.
Instruments
{"strings":[[[".",".","_","_","|",".",".","_","_","|",".",".","_","_","|",".",".","_","_","|"],[".",".","_","_","|",".",".","_","_","|",".",".","_","_","|",".",".","_","_","|"],[7,".","_","_","|",7,".","_","_","|",5,".","_","_","|",5,".","_","_","|"],[".",7,"_","_","|",".",7,"_","_","|",".",5,"_","_","|",".",5,"_","_","|"],[".",".","_","_","|",".",".","_","_","|",".",".","_","_","|",".",".","_","_","|"]],[[".",".",".","|",".",".",".","|",".",".",".","|",".",".",".","|"],[".",".",".","|",".",".",".","|",".",".",".","|",".",".",".","|"],[7,".",".","|",7,".",".","|",5,".",".","|",5,".",".","|"],[".",7,7,"|",".",7,7,"|",".",5,5,"|",".",5,5,"|"],[".",".",".","|",".",".",".","|",".",".",".","|",".",".",".","|"]]],"numberofstrings":5,"notes":["G","D","A","E","B"],"capo":0,"stringnotes":["G2","D2","A1","E1","B0"],"comments":[" play this stave the bottom one is how you would play normally","this is just an example of how the song goes. the last note is not played"],"timing":[[null,null,null,null,null,null,null,null,null,null,null,null,null,null,null,null,null],[null,null,null,null,null,null,null,null,null,null,null,null,null,null,null]],"timingvisible":false,"tabcounter":16,"stave":1,"totalstaves":2,"instrument":"5bass","selectedtuning":"5bass","version":"13"}

Member for

8 months 3 weeks
Submitted by Parasito13cls on Fri, 2020-07-31 16:18