sombras en la oscuridad Solo 1

Chords

01234567891011121314151617181920212223
E
B
G
D
A
E
B
0 1 2 3 4 5 6 7 8 9 10 11 12 13 14 15 16 17 18 19 20 21 22 23
(/) Slide Up  (\) Slide Down  (h) Hammer On  (p) Pull Off  (b) Bend (r) Release (v) Vibrato

Stave 1:

E|------------------------------|------
B|--17--15--17--15--17--20--17--|------
G|------------------------------|--17--
D|------------------------------|------
A|------------------------------|------
E|------------------------------|------

Stave 2:

E|------------------------------|------
B|------------------------------|--15--
G|--17--15--17--15--17--20--17--|------
D|------------------------------|------
A|------------------------------|------
E|------------------------------|------

Stave 3:

E|------------------------------|-------
B|--15--13--15--13--15--18--15--|--/17--
G|------------------------------|-------
D|------------------------------|-------
A|------------------------------|-------
E|------------------------------|-------

Stave 4:

E|------17----------------------
B|--17------17------------------
G|--------------19--19--19--19--
D|------------------------------
A|------------------------------
E|------------------------------

							http://www.guitartabcreator.com
Instruments
{"title":"sombras en la oscuridad ","strings":[[[".",".",".",".",".",".",".","|","."],[17,15,17,15,17,20,17,"|","."],[".",".",".",".",".",".",".","|",17],[".",".",".",".",".",".",".","|","."],[".",".",".",".",".",".",".","|","."],[".",".",".",".",".",".",".","|","."]],[[".",".",".",".",".",".",".","|","."],[".",".",".",".",".",".",".","|",15],[17,15,17,15,17,20,17,"|","."],[".",".",".",".",".",".",".","|","."],[".",".",".",".",".",".",".","|","."],[".",".",".",".",".",".",".","|","."]],[[".",".",".",".",".",".",".","|",".","."],[15,13,15,13,15,18,15,"|","/",17],[".",".",".",".",".",".",".","|",".","."],[".",".",".",".",".",".",".","|",".","."],[".",".",".",".",".",".",".","|",".","."],[".",".",".",".",".",".",".","|",".","."]],[[".",17,".",".",".",".","."],[17,".",17,".",".",".","."],[".",".",".",19,19,19,19],[".",".",".",".",".",".","."],[".",".",".",".",".",".","."],[".",".",".",".",".",".","."]]],"numberofstrings":6,"notes":["E","B","G","D","A","E","B"],"capo":0,"stringnotes":["E4","B3","G3","D3","A2","E2"],"comments":["Stave 1:","Stave 2:","Stave 3:","Stave 4:"],"timing":[["W","W","W","W","W","W","W","W","W"],["W","W","W","W","W","W","W","W","W"],["W","W","W","W","W","W","W","W","W","W"],["W","W","W","W","W","W","W"]],"timingvisible":false,"tabcounter":10,"stave":2,"totalstaves":4,"instrument":"6guitar","selectedtuning":"6_standard","version":"13"}

Member for

1 year
Submitted by Parasito13cls on Thu, 2020-04-16 19:25