kil bil

01234567891011121314151617181920212223
E
B
G
D
A
E
B
0 1 2 3 4 5 6 7 8 9 10 11 12 13 14 15 16 17 18 19 20 21 22 23
(/) Slide Up  (\) Slide Down  (h) Hammer On  (p) Pull Off  (b) Bend (r) Release (v) Vibrato

Stave 1:

A|-----------------------------|-----------------------------|--2--2--2--2--2--2--2--2--2--|--
E|--3--3--3--3--3--3--3--3--3--|--5--5--5--5--5--5--5--5--5--|-----------------------------|--
A|-----------------------------|-----------------------------|-----------------------------|--
G|-----------------------------|-----------------------------|-----------------------------|--

Stave 2:

A|--3--3-----------------------|-----3-----------------|--------------3-----------------|--
E|--------5--5--3--3--------3--|--5-----5--3--3--3--3--|--------3--5-----5--3--3--3--3--|--
A|--------------------4--4-----|-----------------------|--4--4--------------------------|--
G|-----------------------------|-----------------------|--------------------------------|--

Stave 3:

A|-----------------------------------
E|-----------------------------5--3--
A|--0--4--0--4--0--4-----0--4--------
G|-----------------------------------

Stave 4:

A|--7--7--5--5--3--3--------|--7--7--7--5--5-----3--3--3--3--3--
E|--------------------3--3--|-----------------------------------
A|--------------------------|-----------------------------------
G|--------------------------|-----------------------------------

Stave 5:

A|--3--3--3--------------------------|--------3--------------------------
E|-----------5--5-----3--3--------3--|--5--5-----5--3--3--3--3--3--3-----
A|--------------------------4--4-----|-----------------------------------
G|-----------------------------------|-----------------------------------

Stave 6:

A|-----------2--3--7--5--3--|--3--3--5--3--2--0--|--0--0--2-----------
E|--3--3--5-----------------|--------------------|-----------0--3--3--
A|--------------------------|--------------------|--------------------
G|--------------------------|--------------------|--------------------

							http://www.guitartabcreator.com
Chords

Instruments
{"strings":[[[".",".",".",".",".",".",".",".",".","|",".",".",".",".",".",".",".",".",".","|",2,2,2,2,2,2,2,2,2,"|"],[3,3,3,3,3,3,3,3,3,"|",5,5,5,5,5,5,5,5,5,"|",".",".",".",".",".",".",".",".",".","|"],[".",".",".",".",".",".",".",".",".","|",".",".",".",".",".",".",".",".",".","|",".",".",".",".",".",".",".",".",".","|"],[".",".",".",".",".",".",".",".",".","|",".",".",".",".",".",".",".",".",".","|",".",".",".",".",".",".",".",".",".","|"]],[[3,3,".",".",".",".",".",".",".","|",".",3,".",".",".",".",".","|",".",".",".",".",3,".",".",".",".",".","|"],[".",".",5,5,3,3,".",".",3,"|",5,".",5,3,3,3,3,"|",".",".",3,5,".",5,3,3,3,3,"|"],[".",".",".",".",".",".",4,4,".","|",".",".",".",".",".",".",".","|",4,4,".",".",".",".",".",".",".",".","|"],[".",".",".",".",".",".",".",".",".","|",".",".",".",".",".",".",".","|",".",".",".",".",".",".",".",".",".",".","|"]],[[".",".",".",".",".",".","_",".",".",".","."],[".",".",".",".",".",".","_",".",".",5,3],[0,4,0,4,0,4,"_",0,4,".","."],[".",".",".",".",".",".","_",".",".",".","."]],[[7,7,5,5,3,3,".",".","|",7,7,7,5,5,"_",3,3,3,3,3],[".",".",".",".",".",".",3,3,"|",".",".",".",".",".","_",".",".",".",".","."],[".",".",".",".",".",".",".",".","|",".",".",".",".",".","_",".",".",".",".","."],[".",".",".",".",".",".",".",".","|",".",".",".",".",".","_",".",".",".",".","."]],[[3,3,3,".",".","_",".",".",".",".",".","|",".",".",3,".",".",".",".",".",".",".","_"],[".",".",".",5,5,"_",3,3,".",".",3,"|",5,5,".",5,3,3,3,3,3,3,"_"],[".",".",".",".",".","_",".",".",4,4,".","|",".",".",".",".",".",".",".",".",".",".","_"],[".",".",".",".",".","_",".",".",".",".",".","|",".",".",".",".",".",".",".",".",".",".","_"]],[[".",".",".",2,3,7,5,3,"|",3,3,5,3,2,0,"|",0,0,2,".",".","."],[3,3,5,".",".",".",".",".","|",".",".",".",".",".",".","|",".",".",".",0,3,3],[".",".",".",".",".",".",".",".","|",".",".",".",".",".",".","|",".",".",".",".",".","."],[".",".",".",".",".",".",".",".","|",".",".",".",".",".",".","|",".",".",".",".",".","."]]],"numberofstrings":4,"notes":["A","E","A","G"],"capo":0,"stringnotes":["A4","E4","C4","G3"],"comments":["Stave 1:","Stave 2:","Stave 3:","Stave 4:","Stave 5:","Stave 6:"],"timing":[["W","W","W","W","W","W","W","W","W",null,"W","W","W","W","W","W","W","W","W",null,"W","W","W","W","W","W","W","W","W"],["W","W","W","W","W","W","W","W","W",null,"W","W","W","W","W","W","W",null,"W","W","W","W","W","W","W","W","W","W"],["W","W","W","W","W","W","W","W","W","W","W"],["W","W","W","W","W","W","W","W",null,"W","W","W","W","W","W","W","W","W","W","W"],["W","W","W","W","W","W","W","W","W","W","W",null,"W","W","W","W","W","W","W","W","W","W","W"],["W","W","W","W","W","W","W","W",null,"W","W","W","W","W","W",null,"W","W","W","W","W","W"]],"timingvisible":false,"tabcounter":22,"stave":5,"totalstaves":6,"instrument":"ukulele","selectedtuning":"ukulele","version":"13"}
Submitted by PARAGJO on Thu, 2022-07-07 21:33