the ending intro

Chords

01234567891011121314151617181920212223
E
B
G
D
A
E
B
0 1 2 3 4 5 6 7 8 9 10 11 12 13 14 15 16 17 18 19 20 21 22 23
(/) Slide Up  (\) Slide Down  (h) Hammer On  (p) Pull Off  (b) Bend (r) Release (v) Vibrato

Stave 1:

E|------------------------------------------------------------------------
B|------------------------------------------------------------------------
G|------------------------------------------------------------------------
D|-----2--------3-------------------------2--------3----------------------
A|--0-----3--0-----3--0--5--3--5--5/7--0-----3--0-----3--0--5--3--5--5/7--
D|------------------------------------------------------------------------

Stave 2:

E|----------------------------------------------------------------------
B|----------------------------------------------------------------------
G|----------------------------------------------------------------------
D|-----2--------5-------------------------2--------3--------------------
A|--------3--0-----3--0--5--3--5--5/7--------3--0-----3--0--5--3--5--3--
D|--3----------------------------------0--------------------------------

Stave 3:

E|----------------------------------------------------------------------------------------
B|----------------------------------------------------------------------------------------
G|-----9---------10-------------------------------9---------10----------------------------
D|--7-----10--7------10--7--12--10--12--12/14--7-----10--7------10--7--12--10--12--12/14--
A|----------------------------------------------------------------------------------------
D|----------------------------------------------------------------------------------------

Stave 4:

E|------------------------------------------------------------------------------------
B|---------------8--------------------------------------------------------------------
G|-----9-----------------------------------------9---------10-------------------------
D|--------10--7-----10--7--12--10--12--12/14--0-----10--7------10--7--12--10--12--10--
A|--8---------------------------------------------------------------------------------
D|------------------------------------------------------------------------------------

							http://www.guitartabcreator.com
Instruments
{"strings":[[[".",".",".",".",".",".",".",".",".",".",".",".",".",".",".",".",".",".",".",".",".",".",".",".",".","."],[".",".",".",".",".",".",".",".",".",".",".",".",".",".",".",".",".",".",".",".",".",".",".",".",".","."],[".",".",".",".",".",".",".",".",".",".",".",".",".",".",".",".",".",".",".",".",".",".",".",".",".","."],[".",2,".",".",3,".",".",".",".",".",".",".",".",".",2,".",".",3,".",".",".",".",".",".",".","."],[0,".",3,0,".",3,0,5,3,5,5,"/",7,0,".",3,0,".",3,0,5,3,5,5,"/",7],[".",".",".",".",".",".",".",".",".",".",".",".",".",".",".",".",".",".",".",".",".",".",".",".",".","."]],[[".",".",".",".",".",".",".",".",".",".",".",".",".",".",".",".",".",".",".",".",".",".",".","."],[".",".",".",".",".",".",".",".",".",".",".",".",".",".",".",".",".",".",".",".",".",".",".","."],[".",".",".",".",".",".",".",".",".",".",".",".",".",".",".",".",".",".",".",".",".",".",".","."],[".",2,".",".",5,".",".",".",".",".",".",".",".",".",2,".",".",3,".",".",".",".",".","."],[".",".",3,0,".",3,0,5,3,5,5,"/",7,".",".",3,0,".",3,0,5,3,5,3],[3,".",".",".",".",".",".",".",".",".",".",".",".",0,".",".",".",".",".",".",".",".",".","."]],[[".",".",".",".",".",".",".",".",".",".",".",".",".",".",".",".",".",".",".",".",".",".",".",".",".","."],[".",".",".",".",".",".",".",".",".",".",".",".",".",".",".",".",".",".",".",".",".",".",".",".",".","."],[".",9,".",".",10,".",".",".",".",".",".",".",".",".",9,".",".",10,".",".",".",".",".",".",".","."],[7,".",10,7,".",10,7,12,10,12,12,"/",14,7,".",10,7,".",10,7,12,10,12,12,"/",14],[".",".",".",".",".",".",".",".",".",".",".",".",".",".",".",".",".",".",".",".",".",".",".",".",".","."],[".",".",".",".",".",".",".",".",".",".",".",".",".",".",".",".",".",".",".",".",".",".",".",".",".","."]],[[".",".",".",".",".",".",".",".",".",".",".",".",".",".",".",".",".",".",".",".",".",".",".","."],[".",".",".",".",8,".",".",".",".",".",".",".",".",".",".",".",".",".",".",".",".",".",".","."],[".",9,".",".",".",".",".",".",".",".",".",".",".",".",9,".",".",10,".",".",".",".",".","."],[".",".",10,7,".",10,7,12,10,12,12,"/",14,0,".",10,7,".",10,7,12,10,12,10],[8,".",".",".",".",".",".",".",".",".",".",".",".",".",".",".",".",".",".",".",".",".",".","."],[".",".",".",".",".",".",".",".",".",".",".",".",".",".",".",".",".",".",".",".",".",".",".","."]]],"numberofstrings":6,"notes":["E","B","G","D","A","D"],"capo":0,"stringnotes":["E3","B2","G2","D2","A1","D1"],"comments":["Stave 1:","Stave 2:","Stave 3:","Stave 4:"],"timing":[["W","W","W","W","W","W","W","W","W","W","W",null,"W","W","W","W","W","W","W","W","W","W","W","W",null,"W"],["W","W","W","W","W","W","W","W","W","W","W",null,"W","W","W","W","W","W","W","W","W","W","W","W"],["W","W","W","W","W","W","W","W","W","W","W",null,"W","W","W","W","W","W","W","W","W","W","W","W",null,"W"],["W","W","W","W","W","W","W","W","W","W","W","W","W","W","W","W","W","W","W","W","W","W","W","W"]],"timingvisible":false,"tabcounter":24,"stave":3,"totalstaves":4,"instrument":"6guitar","selectedtuning":"Drop D","version":"13"}

Member for

3 weeks 2 days
Submitted by paparoachfan on Tue, 2020-09-29 03:18