Sound will begin in 5 seconds

Song 2-Pandemonium-Quinn O'Connell 17/06/15

01234567891011121314151617181920212223
E
B
G
D
A
E
B
0 1 2 3 4 5 6 7 8 9 10 11 12 13 14 15 16 17 18 19 20 21 22 23
Song Science #1: How Pros Use 6 Chords to Write Hit Songs
(/) Slide Up  (\) Slide Down  (h) Hammer On  (p) Pull Off  (b) Bend (r) Release (v) Vibrato

Stave 1:

G|--------------------------------------|------------------------------------|-
D|--------10---9-----7---7------------7-|--------7-------7-------7-------5---|-
A|-0----0----0---0-0---0---0-0-0-7-10---|-5----5---5-5-5---5/8-8---8\3-3---3-|-
E|--------------------------------------|------------------------------------|-

Stave 2:

G|-----------------------------------|-------------------------------------|-
D|-----10---10-----9---9-----7-7-7-7-|-------------------------------------|-
A|-0-0----0----0-0---0---0-0---------|-5-5-5-5-5-5-5-5-8-8-8-8-10-10-10-10-|-
E|-----------------------------------|-------------------------------------|-

Stave 3:

G|-------------------------------------2-------2-------5-------5---|-
D|-----3-------3-------2-------2-----------------------------------|-
A|---------------------------------0-0---0-0-0---0-3-3---3-3-3---3-|-
E|-1-1---1-1-1---1-0-0---0-0-0---0---------------------------------|-

Stave 4:

G|-----------------------------------------------------------------|-
D|-----3-------3-------5-------5-------7---7---7---7---7---7---7---|-
A|-----------------------------------------------------------------|-
E|-1-1---1-1-1---1-3-3---3-3-3---3-5-5---5---5---5---5---5---5---5-|-

Stave 5:

G|-----------------------------------------------------------------------|------------------------------|-
D|-----3-------3-------5-------5-----------------------------------------|------------------------------|-
A|---------------------------------0-0-12-0-10-0-8-0-7-0-8-0-7-0-7h8p7h8-|------------------------------|-
E|-1-1---1-1-1---1-3-3---3-3-3---3---------------------------------------|-5-5----5-5----5-5----5-5-5-5-|-

http://www.guitartabcreator.com
Guitar Tab Creator is intended to store guitar tab created through the tool. It currently does not support in-line text editing. Any text you place in here will be lost. If you need to comment on your tab, please use the "Tab Notes" section located below.