Que malo

01234567891011121314151617181920212223
E
B
G
D
A
E
B
0 1 2 3 4 5 6 7 8 9 10 11 12 13 14 15 16 17 18 19 20 21 22 23
(/) Slide Up  (\) Slide Down  (h) Hammer On  (p) Pull Off  (b) Bend (r) Release (v) Vibrato

Intro

G|-----------------------------------
D|-----------------------------------
A|-----------------------------------
D|--0-----0--0-----0--3--3--3--5--5--

Estribillo

G|-----------------------------------------------------------------------
D|-----------------------------------------------------------------------
A|-----------------------------------------------------------------------
D|--5-----5--8--5-----5-----5--8--5-----5-----5--8--5--3--3--3--3--3--3--

Estrofa 2

G|--------------------------------------------
D|--------------------------------------------
A|--------------------------------------------
D|--5-----5--5-----5--8--8--8--10--10--10-----

Estribillo Lento

G|--------------------------------------------------------------------------------------
D|--------------------------------------------------------------------------------------
A|--------------------------------------------------------------------------------------
D|--5--------5--8--5--------5--------5--8--5--------5--------5--8--5--3--3--3-----------

Estribillo

G|--
D|--
A|--
D|--

							http://www.guitartabcreator.com
Chords

Instruments
{"strings":[[[".",".",".","_","_",".","_",".",".",".","."],[".",".",".","_","_",".","_",".",".",".","."],[".",".",".","_","_",".","_",".",".",".","."],[0,".",0,0,"_",0,3,3,3,5,5]],[[".","_",".",".",".",".",".",".",".",".",".",".",".",".",".",".",".",".",".",".",".",".","."],[".","_",".",".",".",".",".",".",".",".",".",".",".",".",".",".",".",".",".",".",".",".","."],[".","_",".",".",".",".",".",".",".",".",".",".",".",".",".",".",".",".",".",".",".",".","."],[5,".",5,8,5,".",5,".",5,8,5,".",5,".",5,8,5,3,3,3,3,3,3]],[[".",".",".",".",".",".",".",".",".",".",".",".","."],[".",".",".",".",".",".",".",".",".",".",".",".","."],[".",".",".",".",".",".",".",".",".",".",".",".","."],[5,".",5,5,".",5,8,8,8,10,10,10,"."]],[[".","_","_",".",".",".",".",".",".",".",".",".",".",".",".",".",".",".",".",".",".",".",".",".",".",".",".","."],[".","_","_",".",".",".",".",".",".",".",".",".",".",".",".",".",".",".",".",".",".",".",".",".",".",".",".","."],[".","_","_",".",".",".",".",".",".",".",".",".",".",".",".",".",".",".",".",".",".",".",".",".",".",".",".","."],[5,"_",".",5,8,5,".",".",5,".",".",5,8,5,".",".",5,".",".",5,8,5,3,3,3,".",".","."]],[[],[],[],[]]],"numberofstrings":4,"notes":["G","D","A","D"],"capo":0,"stringnotes":["G2","D2","A1","D7"],"comments":["Intro","Estribillo","Estrofa 2","Estribillo Lento","Estribillo"],"timing":[[null,null,null,null,null,null,null,null,null,null,null,null,null],[null,"W",null,"W","W","W",null,"W",null,"W","W","W",null,"W",null,"W","W","W","W","W","W",null,null,null,null,null,"W",null,"W","W","W"],[null,"W",null,"W","W",null,"W","W","W","W","W","W","W"],[null,"W",null,"W","W","W","W",null,null,"W","W",null,"W","W","W",null,null,"W",null,null,"W","W","W",null,"W","W","W","W","W"],[]],"timingvisible":false,"tabcounter":0,"stave":4,"totalstaves":5,"instrument":"4bass","selectedtuning":"4bass","version":"13"}

Member for

2 months
Submitted by pandeleche on Tue, 2020-11-24 11:17