Sound will begin in 5 seconds

Little Lion Man Melody

01234567891011121314151617181920212223
E
B
G
D
A
E
B
0 1 2 3 4 5 6 7 8 9 10 11 12 13 14 15 16 17 18 19 20 21 22 23
(/) Slide Up  (\) Slide Down  (h) Hammer On  (p) Pull Off  (b) Bend (r) Release (v) Vibrato

Stave 1: Repeat x2

E|--------------------------------------------------|-----
B|--------------------------------------------------|-----
G|--5/7--5-------------7p5--5-------------5--5v-----|-----
D|----------7--7p5-------------7--7p5------------7--|-----
A|------------------8------------------8------------|-----
E|--------------------------------------------------|-----

Stave 2: Repeat x2

E|--------------------------------------------|--
B|--------------------------------------------|--
G|--7--5-------------7p5--5-------------------|--
D|--------7--7p5-------------7--7p5--5--------|--
A|----------------8---------------------8--8--|--
E|--------------------------------------------|--

Stave 3: Chorus

E|------------------------------------------------------------------------------------------------
B|------------------------------------------------------------------------------------------------
G|-----------7--7--5--5-----------------7--7--5--5-----------------7--7--5--5/7-------------------
D|-----------------------7--------------------------7----------------------------7-----7p5--7--5--
A|--8--8--8--------------------8--8--8--------------------8--8--8---------------------------------
E|------------------------------------------------------------------------------------------------



E|------------------------------|--
B|------------------------------|--
G|------------------------------|--
D|--7h8p7--5-----5-----5--------|--
A|------------------8-----8--8--|--
E|------------------------------|--

Stave 5: Repeat x2

E|-----------------------------------------------------|--
B|-----------------------------------------------------|--
G|-----5/7--5-------------7p5--5-------------5--5v-----|--
D|-------------7--7p5-------------7--7p5------------7--|--
A|---------------------8------------------8------------|--
E|-----------------------------------------------------|--

Stave 6: Repeat x2

E|--------------------------------------------|--
B|--------------------------------------------|--
G|--7--5-------------7p5--5-------------------|--
D|--------7--7p5-------------7--7p5--5--------|--
A|----------------8---------------------8--8--|--
E|--------------------------------------------|--

Stave 7: Chorus pt. 1

E|------------------------------------------------------------------------------------------------
B|------------------------------------------------------------------------------------------------
G|-----------7--7--5--5-----------------7--7--5--5-----------------7--7--5--5/7-------------------
D|-----------------------7--------------------------7----------------------------7-----7p5--7--5--
A|--8--8--8--------------------8--8--8--------------------8--8--8---------------------------------
E|------------------------------------------------------------------------------------------------



E|------------|--
B|------------|--
G|------------|--
D|--7h8p7--5--|--
A|------------|--
E|------------|--

Stave 9: Chorus end

E|-----------------|--
B|-----------------|--
G|-----------------|--
D|--5-----5--------|--
A|-----8-----8--8--|--
E|-----------------|--

Stave 10: Instrumental 1 x4

E|------------------------------------------|--
B|------------------------------------------|--
G|--12--12b14--12--10--12/15-----14b15--14--|--
D|------------------------------------------|--
A|------------------------------------------|--
E|------------------------------------------|--

Stave 11: Instrumental pt.2 x2

E|--12b13--12--12b13r8--10--|--
B|--------------------------|--
G|--------------------------|--
D|--------------------------|--
A|--------------------------|--
E|--------------------------|--

Stave 12: Chorus x2

E|--------------10--10--8--8---------------------10--10--8--8---------------------10--10--8--8/10------
B|----------------------------10-------------------------------10----------------------------------10--
G|--10--10--10-----------------------10--10--10-----------------------10--10--10-----------------------
D|-----------------------------------------------------------------------------------------------------
A|-----------------------------------------------------------------------------------------------------
E|-----------------------------------------------------------------------------------------------------

Stave 13:

E|-----------------------------|--
B|--10\8--10--8--10b11--10--8--|--
G|-----------------------------|--
D|-----------------------------|--
A|-----------------------------|--
E|-----------------------------|--

Stave 14: Chorus end

E|--------------------|--
B|--8------8----------|--
G|-----11-----11--11--|--
D|--------------------|--
A|--------------------|--
E|--------------------|--

http://www.guitartabcreator.com
Guitar Tab Creator is intended to store guitar tab created through the tool. It currently does not support in-line text editing. Any text you place in here will be lost. If you need to comment on your tab, please use the "Tab Notes" section located below.