River flows in you

Chords

01234567891011121314151617181920212223
E
B
G
D
A
E
B
0 1 2 3 4 5 6 7 8 9 10 11 12 13 14 15 16 17 18 19 20 21 22 23
(/) Slide Up  (\) Slide Down  (h) Hammer On  (p) Pull Off  (b) Bend (r) Release (v) Vibrato

Capo Fret 2

Stave 1:

E|-3---2---3---2---3-------3-----------3---2---3---2---3-------3-----
B|---------0-----------3-------1-----0---------0-----------3-------1-
G|-----0-------0-------0-------0---0-------0-------0-------0-------0-
D|-2-----------------------------------2-----------------------------
A|-----------------3-----------------------------------3-------------
E|-------------------------------------------------------------------

Stave 2:

E|-----3---2-3-----2-3-------3----------------
B|---0-----------0---------3-------1----------
G|-0-------0-------0-----0-------0-----3\4---
D|-----2-------2---------------------0--------
A|---------------------3-------3--------------
E|-------------------------------------3------

							http://www.guitartabcreator.com
Instruments
{"strings":[[[3,".",2,".",3,".",2,".",3,".",".",".",3,".",".",".",".",".",3,".",2,".",3,".",2,".",3,".",".",".",3,".","."],[".",".",".",".",0,".",".",".",".",".",3,".",".",".",1,".",".",0,".",".",".",".",0,".",".",".",".",".",3,".",".",".",1],[".",".",0,".",".",".",0,".",".",".",0,".",".",".",0,".",0,".",".",".",0,".",".",".",0,".",".",".",0,".",".",".",0],[2,".",".",".",".",".",".",".",".",".",".",".",".",".",".",".",".",".",2,".",".",".",".",".",".",".",".",".",".",".",".",".","."],[".",".",".",".",".",".",".",".",3,".",".",".",".",".",".",".",".",".",".",".",".",".",".",".",".",".",3,".",".",".",".",".","."],[".",".",".",".",".",".",".",".",".",".",".",".",".",".",".",".",".",".",".",".",".",".",".",".",".",".",".",".",".",".",".",".","."]],[[".",".",3,".",2,3,".",".",2,3,".",".",".",3,".",".",".",".",".",".","_","."],[".",0,".",".",".",".",".",0,".",".",".",".",3,".",".",".",1,".",".",".","_","."],[0,".",".",".",0,".",".",".",0,".",".",0,".",".",".",0,".",".",3,"\\",4,"."],[".",".",2,".",".",".",2,".",".",".",".",".",".",".",".",".",".",0,".",".","_","."],[".",".",".",".",".",".",".",".",".",".",3,".",".",".",3,".",".",".",".",".","_","."],[".",".",".",".",".",".",".",".",".",".",".",".",".",".",".",".",".",".",3,".","_","."]]],"numberofstrings":6,"notes":["E","B","G","D","A","E","B"],"capo":"2","stringnotes":["E4","B3","G3","D3","A2","E2"],"comments":["Stave 1:","Stave 2:"],"timing":[[null,null,null,null,null,null,null,null,null,null,null,null,null,null,null,null,null,null,null,null,null,null,null,null,null,null,null,null,null,null,null,null,null,null],[null,null,null,null,null,null,null,null,null,null,null,null,null,null,null,null,null,null,null,null,null,null,null]],"timingvisible":false,"tabcounter":22,"stave":1,"totalstaves":2,"instrument":"6guitar","selectedtuning":"6_standard","version":"13"}

Member for

1 month 3 weeks
Submitted by palan.petr on Sun, 2020-11-22 11:16